Oops, an error
Loading. Please wait.

A Song To Stifle Imperial Progression bass

333 views 6 this week
2 commentsread comments
1 2 3 4 5
2 more votes to show rating
add to favorites
×
Save as Personal and add changes to this tab that will be seen only by you. Learn more ›
×
You can save this tab as Personal to edit and correct it or add notes. All changes will be seen only by you. Learn more »
launch autoscroll
font size
0
reset
guitar tuner
edit
Autoscroll
slow
fast
+/-
esc
set tempo
stop
a song to stifle imperial progression (a work in progress) // the used


Tabbed by: brentyonepilots
Bassist: Jepha Howard
Tuning: standard

intro: (comes in at 0:17)

G|---------------------------------------------------------------------------|
D|---------------------------------------------------------------------------|
A|---------------------------------------------------------------------------| x4
E|222-222-222-1-1-1-1--------------------------------------------------------|


verse:

G|-----------------------------------------------------------------------------|
D|-----------------------------------------------------------------------------|
A|-----7\------7-6-5-4-------6\-----6-5-4-3------------------------------------| x2
E|222-----222----------222------222--------------------------------------------|

pre chorus: ("God bless the USA")

G|---------------------------------------------------------------------------|
D|---------------------------------------------------------------------------|
A|---------------------------------------------------------------------------|
E|2~-5~-7~-9~----------------------------------------------------------------|


(pause)


chorus:

G|---------------------------------------------------------------------------|
D|---------------------------------------------------------------------------|
A|---------------------------------------------------------------------------| x2
E|2-2-555-4-0-5-5-5h7-5-4-6-7-7-7h9-7-5-7-7-7h9-7-5--------------------------|


intro x2
versex x2
chorus x4


bridge:

for the bridge, the bass comes in at 2:33. its sort of quiet and complicated and i 
couldnt figure it out.
you could probably get away without playing anything for it, or just the pre chorus a 
few times. there is a
pause after the bridge before the next chorus.


chorus x4
intro x2


~end~

| /  slide up
| \  slide down
| h  hammer-on
| p  pull-off
| ~  vibrato
| +  harmonic
| x  Mute note

===============================================================================

            
            
Suggest correction
Creating personal tab
Creating personal tab
You can edit any tab online and save it as your Personal.

You can edit, replace or remove any tab part or add personal notes – all changes will be seen only by you.

Personal tabs can be accessed anytime from any device, even offline.
Learn more »
Give kudos to tab author, rate the tab!
1 2 3 4 5
comments
print report bad tab
2 comments total.
0 reply
jillgonda 10 Nov 20, 2015 06:37 PM

The chorus has the right notes, but that was the incorrect picking/plucking (depending on player) to match the song.The chorus seems a lot more bluesy than the tab given. I suggest you relook at the picking for it (how many times he plucks it etc.) and then just mark that down on the tabs. Otherwise, fairly decent.

0 reply
abigailharvey199 10 Sep 03, 2017 11:18 AM

the bridge is a bit like the chorus

guest
You may want to rate the tab now too:
select rating
Wanna post a correction for this tab? Suggest correction