Oops, an error
Loading. Please wait.

Alone This Holiday Chords

3,943 views 1 this week
1 commentread comment
1 2 3 4 5
please rate
add to favorites
launch autoscroll
font size
0
reset
transpose
0
reset
display chords
guitar tuner
Tab Pro tools
  • play this tab
  • loop segment
  • change instrument
  • show fretboard
  • metronome
×
Best way to learn
"Alone This Holiday"
Autoscroll
slow
fast
+/-
esc
set tempo
stop
Contributor
The Used 
Alone This Holiday   

Intro:

         x2                       x2
E|---10-----------------|---0------------------|
B|-------8-7-8--8-7-8---|------8-7-8--8-7-8----|  x2
G|----------------------|---7------------------|
D|----------------------|----------------------|
A|----------------------|----------------------|
E|----------------------|----------------------|

                                        x3
E|---10---------10----------|---0---------0--------------------|
B|-------8-7-8------8-7-8---|------8-7-8-----8-7-8-------------|  
G|--------------------------|---7---------7--------------------|
D|--------------------------|----------------------------------|
A|--------------------------|----------------------------------|
E|--------------------------|----------------------------------|
                                       
   
D

D
Maybe light a candle
B
Don't say a prayer for me
G
Feel alone
Cuz I'm gone
D
I left you
Make Christmas your own

B                           D (Arpegiado) 
you throw the thought of us away
B                    D   
you'll be alone this holiday

Coro:

Said, it's cold in this town
And there's snow on the ground

Far from home
Not alone

I left you with nothing 
And that's what you own

B                            D
you throw the thought of us away
B                    D  
you'll be alone this holiday

Bridge
E|-----------------------------------------|
B|-----------------------------------------|
G|-----------------------------------------|
D|-0-0-4-5-4-2-2-4-5-4-0-0-4-5-4-2-2-4-5-4-|
A|-0-0-4-5-4-2-2-4-5-4-0-0-4-5-4-2-2-4-5-4-|
E|-x-x-2-3-2-0-0-2-3-2-x-x-2-3-2-0-0-2-3-2-|


Verso:

Maybe light a candle
Don't say a prayer for me
Feel alone
I've left you the best time 
Make Christmas your own

you throw the thought of us away
you'll be alone this holiday

Dedikado a mi novia..... Te amo!!
comments
We did not receive enough feedback on this tab! Please rate:
print report bad tab
1 2 3 4 5
1 comment total.
0 reply
deathfromala wrote on December 5 2015, 05:04 am

should be Bm instead of B

I want to post or [tab]
guest
You may want to rate the tab now too:
select rating
Please do not post tabs as comments. Select "correction" instead!