Oops, an error
Loading. Please wait.

Back Of Your Mouth Tab

version 3
version 3

Whole song

2,552 views 3 this week
no commentswrite comment
1 2 3 4 5
excellent!
x 7
add to favorites
launch autoscroll
font size
0
reset
how to read this tab
guitar tuner
Tab Pro tools
  • play this tab
  • loop segment
  • change instrument
  • show fretboard
  • metronome
×
Best way to learn
"Back Of Your Mouth"
Autoscroll
slow
fast
+/-
esc
set tempo
stop
Contributor
Tuning
D A D G B E
=======================================================================
Song: Back of your Mouth
Band: The Used
Tuning: Drop D (DADGBe)
Tabbed by: Jake Something (sloppyjoe24)


h = hammer on                   
p = pull off                    
^ = bend                               
r = release
~ = let it ring                         
/ = slide up                             
\ = slide down                            
X = palm mute                              
+ = harmonic                                
v = vibrato


=======================================================================

Intro Part I:

e|-----------------------------------------------------------------------------
B|-----------------------------------------------------------------------------
G|--------7-7-7--10--10-10-10--5--7-7-7--10--10-10-10--5--7-7-7--10--10-10-10--
D|--0--3--5-5-5---8---0--0--0--3--5-5-5---8---0--0--0--3--5-5-5---8---0--0--0--
A|--0--3--5-5-5---8---0--0--0--3--5-5-5---8---0--0--0--3--5-5-5---8---0--0--0--
D|--0--3--5-5-5---8---0--0--0--3--5-5-5---8---0--0--0--3--5-5-5---8---0--0--0--


e|------------------------------------|
B|------------------------------------|
G|------------------------------------|
D|--11--10-10-10--11--8-8-8--10--8----|
A|--11--10-10-10--11--8-8-8--10--8----|
D|--11--10-10-10--11--8-8-8--10--8----|

Intro Part II:
      
e|-----Yeah--------------------------------------------------------------------
B|-----------------------------------------------------------------------------
G|----7-7-7--10--10-10-10--5--7-7-7--10--10-10-10--5--7-7-7--10--10-10-10------
D|----5-5-5---8---0--0--0--3--5-5-5---8---0--0--0--3--5-5-5---8---0--0--0------
A|----5-5-5---8---0--0--0--3--5-5-5---8---0--0--0--3--5-5-5---8---0--0--0------
D|----5-5-5---8---0--0--0--3--5-5-5---8---0--0--0--3--5-5-5---8---0--0--0------


e|------------------------------------|-------|
B|------------------------------------|-------|
G|------------------------------------|-------|
D|--11--10-10-10--11--8-8-8--10--8----|---5~--|
A|--11--10-10-10--11--8-8-8--10--8----|---5~--|
D|--11--10-10-10--11--8-8-8--10--8----|---5~--|

===============================================================================

First Verse:

e|...Turn-you-teeth-up-and-run,-leave...|...should-I-fit-these-so-politely...|
B|--------------------------------------|------------------------------------|
G|--------------------------------------|------------------------------------|
D|----------------------------------5-5-|----5-------------------------------|
A|----------------------------------5-5-|----5-------------------------------|
D|----------------------------------5-5-|----5-------------------------------|


e|...Scabs and ashes. The back of your mouth!...-----------|
B|---------------------------------------------------------|
G|-------------------------9---10--11----12----------------|
D|-------------------------9---10--11----12----------------|
A|-------------------------7----8---9----10----------------|
D|---------------------------------------------------------|

===============================================================================

Chorus:

e|--In-this-exchange,---|-----Touch-myself------|-----so-go-ahead-and---|
B|-------I-often--------|-----------------------|-----let-those-dirty---|
G|----------------------|-----------------------|-----------------------|
D|--5-5-5--5-5-5-5--5-5-|--3-3-3--3-3-3-3--3-3--|-2-2-2--2-2-2-2--2-2---|
A|--5-5-5--5-5-5-5--5-5-|--3-3-3--3-3-3-3--3-3--|-2-2-2--2-2-2-2--2-2---|
D|--5-5-5--5-5-5-5--5-5-|--3-3-3--3-3-3-3--3-3--|-2-2-2--2-2-2-2--2-2---|

e|---words-pass-|----through--------|
B|-----right----|-------me----------|
G|--------------|-------------------|
D|-----1-1-1----|---0-0-0--0-0------|
A|-----1-1-1----|---0-0-0--0-0------|
D|-----1-1-1----|---0-0-0--0-0------|

e|-----just-passing-----|-----through,-not------|---by,-not-saying------|
B|----------------------|-------stopping--------|-----------------------|
G|----------------------|-----------------------|-----------------------|
D|--5-5-5--5-5-5-5--5-5-|--3-3-3--3-3-3-3--3-3--|-2-2-2--2-2-2-2--2-2---|
A|--5-5-5--5-5-5-5--5-5-|--3-3-3--3-3-3-3--3-3--|-2-2-2--2-2-2-2--2-2---|
D|--5-5-5--5-5-5-5--5-5-|--3-3-3--3-3-3-3--3-3--|-2-2-2--2-2-2-2--2-2---|

e|---hi,-girl-you-can't-kill-a-liar-|
B|----------------------------------|
G|----------------------------------|
D|----1-1-1-1-1-1-1-1---------------|
A|----1-1-1-1-1-1-1-1---------------|
D|----1-1-1-1-1-1-1-1---------------|

===============================================================================

Intro Part II:

===============================================================================

e|-----...enjoy-the-cup-and-coffee...---|..dancing-hoes-and-stagnance,-okay..|
B|--------------------------------------|------------------------------------|
G|--------------------------------------|------------------------------------|
D|----------------------------------5-5-|----5-------------------------------|
A|----------------------------------5-5-|----5-------------------------------|
D|----------------------------------5-5-|----5-------------------------------|


e|...Scabs and ashes. The back of your mooooooooooouuuuuuuuth!...|
B|---------------------------------------------------------------|
G|-------------------------6---7---8---9---10---11---12~--12-----|
D|-------------------------6---7---8---9----8---11---12~--12-----|
A|-------------------------4---5---6---7----8----9---10~--10-----|
D|---------------------------------------------------------------|

===============================================================================

Chorus:

===============================================================================

Bridge:

    (Lightly)
e|------------------------|
B|------------------------|
G|------------------------|
D|--5~~~~4~~~~3~~~~2~~~~--|x3
A|--5~~~~4~~~~3~~~~2~~~~--|
D|--5~~~~4~~~~3~~~~2~~~~--|

e|------------------------------------------|
B|------------------------------------------|
G|----------------------------------------4-|
D|--5-5--5-5---4-4--4-4---3-3--3-3---2~-----|
A|--5-5--5-5---4-4--4-4---3-3--3-3---2~-----|
D|--5-5--5-5---4-4--4-4---3-3--3-3---2~-----|

===============================================================================

Chorus: Slightly different from the Chorus before

e|--In-this-exchange,---|-----Touch-myself------|-----so-go-ahead-and---|
B|-------I-often--------|-----------------------|-----let-those-dirty---|
G|----------------------|-----------------------|-----------------------|
D|--5-5-5--5-5-5-5--5-5-|--3-3-3--3-3-3-3--3-3--|-2-2-2--2-2-2-2--2-2---|
A|--5-5-5--5-5-5-5--5-5-|--3-3-3--3-3-3-3--3-3--|-2-2-2--2-2-2-2--2-2---|
D|--5-5-5--5-5-5-5--5-5-|--3-3-3--3-3-3-3--3-3--|-2-2-2--2-2-2-2--2-2---|

e|---words-pass-|----through--------|
B|-----right----|-------me----------|
G|--------------|-------------------|
D|-----1-1-1----|---0-0-0--0-0------|
A|-----1-1-1----|---0-0-0--0-0------|
D|-----1-1-1----|---0-0-0--0-0------|

e|-----just-passing-----|-----through,-not------|---by,-not-saying------|
B|----------------------|-------stopping--------|-----------------------|
G|----------------------|-----------------------|-----------------------|
D|--5-5-5--5-5-5-5--5-5-|--3-3-3--3-3-3-3--3-3--|-2-2-2--2-2-2-2--2-2---|
A|--5-5-5--5-5-5-5--5-5-|--3-3-3--3-3-3-3--3-3--|-2-2-2--2-2-2-2--2-2---|
D|--5-5-5--5-5-5-5--5-5-|--3-3-3--3-3-3-3--3-3--|-2-2-2--2-2-2-2--2-2---|

e|---hi,-girl-you-can't-kill-a-liar---|
B|------------------------------------|
G|------------------------------------|
D|----1-1-1-1-1-1-1-1-1-1-1-1-1-1-1-1-|
A|----1-1-1-1-1-1-1-1-1-1-1-1-1-1-1-1-|
D|----1-1-1-1-1-1-1-1-1-1-1-1-1-1-1-1-|


e|--Girl-you-can't-kill-|--Girl-you-can't-kill--|--Girl-you-can't-kill--|
B|--------a-liar--------|--------a-liar---------|--------a-liar---------|
G|----------------------|-----------------------|-----------------------|
D|--5-5-5--5-5-5-5--5-5-|--3-3-3--3-3-3-3--3-3--|-2-2-2--2-2-2-2--2-2---|
A|--5-5-5--5-5-5-5--5-5-|--3-3-3--3-3-3-3--3-3--|-2-2-2--2-2-2-2--2-2---|
D|--5-5-5--5-5-5-5--5-5-|--3-3-3--3-3-3-3--3-3--|-2-2-2--2-2-2-2--2-2---|


e|--Girl-you-can't-kill-a-liar------|
B|----------------------------------|
G|----------------------------------|
D|----1-1-1-1-1-1-1-1---------------|
A|----1-1-1-1-1-1-1-1---------------|
D|----1-1-1-1-1-1-1-1---------------|

===============================================================================

Outro:

e|---------------------------------------------------------------|
B|---------------------------------------------------------------|
G|--------7-7-7--10--10-10-10--5--7-7-7--10--10------------------|
D|--0--3--5-5-5---8---0--0--0--3--5-5-5---8---0---5-5-5-3-4------|
A|--0--3--5-5-5---8---0--0--0--3--5-5-5---8---0---5-5-5-3-4------|
D|--0--3--5-5-5---8---0--0--0--3--5-5-5---8---0---5-5-5-3-4------|

e|----------------------------------------------------------------------------|
B|----------------------------------------------------------------------------|
G|--7-7-7--10--10-10-10-------------------------------------------------------|
D|--5-5-5---8---0--0--0----11--10-10-10--11--8-8-8--10--8----5--5--5--5-------|
A|--5-5-5---8---0--0--0----11--10-10-10--11--8-8-8--10--8----5--5--5--5-------|
D|--5-5-5---8---0--0--0----11--10-10-10--11--8-8-8--10--8----5--5--5--5-------|



e|----------------------------------------------------------------------------|
B|----------------------------------------------------------------------------|
G|----------------------------------------------------------------------------|
D|---8-7--5-3--0-3-4-5---55555555555555555555555555555555~~~~~------------5---|
A|-----------------------55555555555555555555555555555555~~~~~------------5---|
D|-----------------------55555555555555555555555555555555~~~~~------------5---|
                         
                         ^^^^^^^^^^^^^^^^^Trash Can Ending^^^^^^^^^^^^^^^^^
                         
===============================================================================
comments
print report bad tab
I want to post or [tab]
guest
You may want to rate the tab now too:
select rating
Please do not post tabs as comments. Select "correction" instead!