Oops, an error
Loading. Please wait.

Bird And The Worm Bass Tab

version 2
version 2

Whole song

Interactive

1,463 views 3 this week
no commentswrite comment
1 2 3 4 5
worth learning
x 3
add to favorites
launch autoscroll
font size
0
reset
guitar tuner
Tab Pro tools
  • play this tab
  • loop segment
  • change instrument
  • show fretboard
  • metronome
×
Best way to learn
"Bird And The Worm"
Autoscroll
slow
fast
+/-
esc
set tempo
stop
Contributor
Difficulty
intermediate
----------------------------------------------------------------------------
			Bird and the Worm - The Used
----------------------------------------------------------------------------

Tabbed By : LesPauldude667

e-mail: mitchelljames_003@hotmail.com  send comments improvements, hatemail whatever. 
i normally I play the good ol` geetar but this song is tank so here is the bass!

Tuning:DADG Drop d tuning
Intro
G|--------------------------|x4
D|--------------------------| Listen to the rythm and play along.
A|--------------------------|
D|-4-4----4-4----3-3----3-3-|
  `his back pack is all that he knows`
Chorus
G|-----------------------------------------------------------------|x2
D|-----------------------------------------------------------------|
A|---------------------------------0-0-0-0-0-0-0-0-----------------|
D|-4-4-4-4-4-4-4-4-0-0-0-0-0-0-0-0-----------------2-2-2-2-3-3-3-3-|
   `All alone he turns to stone`
Verse
G|-------------------------------------------------------------------------|
D|-------------------------------------------------------------------------|
A|-------------------------------------------------------------------------|
D|-4-4----4-4----3-3----3-3----4-4-4-4-4-4-4-4----3-3----3-3----4-4-4-4-4-4|

Then the chorus is played again then some scary chanting. OK this was my first on bass 
leave comments and respect the Used.

| /  slide up
| \  slide down
| h  hammer-on
| p  pull-off
| ~  vibrato
| +  harmonic
| x  Mute note
============================================================================
comments
We did not receive enough feedback on this tab! Please rate:
print report bad tab
1 2 3 4 5
I want to post or [tab]
guest
You may want to rate the tab now too:
select rating
Please do not post tabs as comments. Select "correction" instead!