Oops, an error
Loading. Please wait.

Bird And The Worm Bass Tab

version 3
version 3

Whole song

Interactive

7,164 views 6 this week
2 commentsread comments
1 2 3 4 5
accurate
x 6
add to favorites
launch autoscroll
font size
0
reset
guitar tuner
Tab Pro tools
  • play this tab
  • loop segment
  • change instrument
  • show fretboard
  • metronome
×
Best way to learn
"Bird And The Worm"
Autoscroll
slow
fast
+/-
esc
set tempo
stop
Contributor
Drop D


bass doesn't come in until the first chorus

G:-------------------------------------------|
D:-------------------------------------------|
A:---------55555555555-0000000000------------|
D:444444444----------------------2-222-33333-|


G:-----------------------------------------|
D:-----------------------------------------|
A:--------55555555555-00000000000----------|
D:44444444-----------------------2h33-2h33-|


G:------------------------------|
D:------------------------------|
A:------------------------------|
D:4-4-5h6-5h6-5h6-5h6-5h6-5h6-4-|


Verse "Out Of His Mind..."

2x
G:------------------------------------------|
D:------------------------------------------|
A:------------------------------------------|
D:4444444-161616161616/-     those are six--|teens


G:----------------------|
D:----------------------|
A:----------------------|
D:4-44-44-44-44-44-44-4-|


G:----------------------------------|
D:----------------------------------|
A:----------------------------------|
D:4-4-4-4-4-4-4-4-4-4-3~3~-XXXXXXXX-|

G:-------------------------------------------|
D:-------------------------------------------|
A:---------55555555555-0000000000------------|
D:444444444----------------------2-222-33333-|


G:---------------------------------------------------|
D:---------------------------------------------------|
A:--------55555555555-00000000000--------------------|
D:44444444-----------------------2h33-2h33-2h33-2h33-|


G:-------------------------------|
D:-------------------------------|
A:-------------------------------|
D:4-4-5h6-5h6-5h6-5h6-5h6-5h6----|


G:------------------------------|
D:------------------------------|
A:------------------------------|
D:4-4-5h6-5h6-5h6-5h6-5h6-5h6---|

G:-------------------------------------------------------|
D:-------------------------------------------------------|
A:-------------------------------------------------------|
D:4-4-5h6-5h6-5h6-5h6-5h6-5h6-5h6-5h6-5h6-5h6-5h6-5h6--4-|


"All He Knows..."   this part is tough to hear


G:-----------------------------|
D:-----------------------------|
A:-----------------------------|
D:4-4-----44------44------33-3-|

"AND, HE, CRAWLS LIKE A WORM..."
(do a bunch of 5h6's at the end...you'll get it)

G:--------------------------------------------------------------------|
D:--------------------------------------------------------------------|
A:--------------------------------------------------------------------|
D:4-4-5h6-5h6-5h6-4-4-5h6-5h6-5h6-3-3-5h6-5h6-5h6-5h6-5h6-5h6-5h6-5h6-|

Chorus:

2x...then 2nd time dont do the 2-222-...just do 333333333333333
G:-------------------------------------------------|
D:-------------------------------------------------|
A:-------2-4-555555-4-2-00000000-4-5---------------|
D:4444444----------------------------2-222-3333333-|


G:-------------------------------------------------|
D:------------------------7-7-7-7-6-4-2-2222-33333-|
A:----------2-4-55555-4-2--------------------------|
D:4-4-4-4-4----------------------------------------|


G:---------------------------------------------------------|
D:------------------------7-7-7-7-6-4----------------------|
A:----------2-4-55555-4-2----------------------------------|
D:4-4-4-4-4--------------------------2h33-2h33-2h33333333--|

G:-------------------------------|
D:-------------------------------|
A:-------------------------------|
D:4-4-5h6-5h6-5h6-5h6-5h6-5h6----|


G:-------------------------------|
D:-------------------------------|
A:-------------------------------|
D:4-4-5h6-5h6-5h6-5h6-5h6-5h6----|

G:----------------------------------------------------------------|
D:----------------------------------------------------------------|
A:----------------------------------------------------------------|
D:4-4-4-4-4-4-5h6-5h6-5h6-5h6-5h6-5h6-5h6-5h6-5h6-5h6-5h6-5h6-5h6-|


G:-------------------------|
D:-------------------------|
A:-------------------------|
D: 4~~~--------------------|

All Alone....
comments
print report bad tab
2 comments total.
+1 reply
hellbassist1 wrote on July 2 2007, 05:43 pm

You have missed of the intro part where single notes are played but the bass doesnt go down to 16's in the chorus its 12 i know you logic is to play the same note just higher but its not actually the same note. but its a resonable tab just like all the others good job. I really like your last chorus i think its better then mine so well done on that part.

keep up the good work ;)

0 reply
fenderbassdude wrote on February 14 2008, 06:34 pm

good job besides the beginning i think you basically got it 5 stars

I want to post or [tab]
guest
You may want to rate the tab now too:
select rating
Please do not post tabs as comments. Select "correction" instead!