Oops, an error
Loading. Please wait.

Blood On My Hands Tab

version 2
version 2

Whole song

Interactive

29,950 views 27 this week
2 commentsread comments
1 2 3 4 5
excellent!
x 14
add to favorites
launch autoscroll
font size
0
reset
how to read this tab
guitar tuner
Tab Pro tools
  • play this tab
  • loop segment
  • change instrument
  • show fretboard
  • metronome
Autoscroll
slow
fast
+/-
esc
set tempo
stop
Contributor
Tuning
D A D G B E
-------------------------------------------------------------------------------
                             Blood On My Hands - The Used
-------------------------------------------------------------------------------
Tabbed by:PT-E
Email:

Tuning: Drop D

 Intro
e|---------------------------------------------------------------------------|
B|---------------------------------------------------------------------------|
G|---------------------------------------------------------------------------|
D|-------5------------5------------5------------5----------------------------|
A|-8-5-8---8-5--8-5-8---8-5--8-5-8---8-5--8-5-8---8--------------------------|
D|---------------------------------------------------------------------------|
   x x x x x x  x x x x x x  x x x x x x  x x x x x
e|---------------------------------------------------------------------------|
B|---------------------------------------------------------------------------|
G|---------------------------------------------------------------------------|
D|-------5------------5------------5-----8p0-7p0-5p0-------------------------|
A|-8-5-8---8-5--8-5-8---8-5--8-5-8---8-5-------------------------------------|
D|---------------------------------------------------------------------------|
   x x x x x x  

e|---------------------------------------------------------------------------|
B|---------------------------------------------------------------------------|
G|-----------------------------------15p0-14p0-----15p0-14p0-----------------|
D|-15p0-15h17p15p0--15p0-15h17p15p0------------15------------17--------------|
A|---------------------------------------------------------------------------|
D|---------------------------------------------------------------------------|

e|---------------------------------------------------------------------------|
B|---------------------------------------------------------------------------|
G|-----------------------------------17p0-15p0-14p0--------------------------|
D|-15p0-15h17p15p0--15p0-15h17p15p0-----------------17p0-17p0-17p0-----------|
A|---------------------------------------------------------------------------|
D|---------------------------------------------------------------------------|

e|---------------------------------------------------------------------------|
B|---------------------------------------------------------------------------|
G|-----------------------------------15p0-14p0------14p0---------------------|
D|-15p0-15h17p15p0--15p0-15h17p15p0------------17p0------17p0-15p0-----------|
A|---------------------------------------------------------------------------|
D|---------------------------------------------------------------------------|

e|---------------------------------------------------------------------------|
B|---------------------------------------------------------------------------|
G|---------------------------------------------------------------------------|
D|-15p0-15h17p15p0--15p0-15h17p15p0--14p0-14h15p14p0-13p0-13p0-13p0------0---|
A|-----------------------------------------------------------------------0---|
D|-----------------------------------------------------------------------0---|


 Verse (played only by bass)


 Chorus
e|---------------------------------------------------------------------------|
B|---------------------------------------------------------------------------|
G|---------------------------------------------------------------------------|
D|-0-0-0-0-0-0-0-0-0-0-0-0-0-3-3-3-3-3-3-3-3-3-8-8-8-8-----------------------|
A|-0-0-0-0-0-0-0-0-0-0-0-0-0-3-3-3-3-3-3-3-3-3-8-8-8-8-----------------------|
D|-0-0-0-0-0-0-0-0-0-0-0-0-0-3-3-3-3-3-3-3-3-3-8-8-8-8-----------------------|

e|---------------------------------------------------------------------------|
B|---------------------------------------------------------------------------|
G|---------------------------------------------------------------------------|
D|-0-0-0-0-0-0-0-0-0-0-0-0-0-3-3-3-3-3-3-3-3-3-3-3-3-3-----------------------|
A|-0-0-0-0-0-0-0-0-0-0-0-0-0-3-3-3-3-3-3-3-3-3-3-3-3-3-----------------------|
D|-0-0-0-0-0-0-0-0-0-0-0-0-0-3-3-3-3-3-3-3-3-3-3-3-3-3-----------------------|

e|---------------------------------------------------------------------------|
B|---------------------------------------------------------------------------|
G|---------------------------------------------------------------------------|
D|-0-0-0-0-0-0-0-0-0-0-0-0-0-3-3-3-3-3-3-3-3-3-8-8-8-8-----------------------|
A|-0-0-0-0-0-0-0-0-0-0-0-0-0-3-3-3-3-3-3-3-3-3-8-8-8-8-----------------------|
D|-0-0-0-0-0-0-0-0-0-0-0-0-0-3-3-3-3-3-3-3-3-3-8-8-8-8-----------------------|

e|---------------------------------------------------------------------------|
B|---------------------------------------------------------------------------|
G|---------------------------------------------------------------------------|
D|-3-3-3-3-3-3-3-3-3-3-3-3-3-2-2-2-2-2-2-2-2--1--1--1--0---------------------|
A|-3-3-3-3-3-3-3-3-3-3-3-3-3-2-2-2-2-2-2-2-2--1--1--1--0---------------------|
D|-3-3-3-3-3-3-3-3-3-3-3-3-3-2-2-2-2-2-2-2-2--1--1--1--0---------------------|


 Verse 


 Chorus
e|---------------------------------------------------------------------------|
B|---------------------------------------------------------------------------|
G|---------------------------------------------------------------------------|
D|-0-0-0-0-0-0-0-0-0-0-0-0-0-3-3-3-3-3-3-3-3-3-8-8-8-8-----------------------|
A|-0-0-0-0-0-0-0-0-0-0-0-0-0-3-3-3-3-3-3-3-3-3-8-8-8-8-----------------------|
D|-0-0-0-0-0-0-0-0-0-0-0-0-0-3-3-3-3-3-3-3-3-3-8-8-8-8-----------------------|

e|---------------------------------------------------------------------------|
B|---------------------------------------------------------------------------|
G|---------------------------------------------------------------------------|
D|-0-0-0-0-0-0-0-0-0-0-0-0-0-3-3-3-3-3-3-3-3-3-3-3-3-3-----------------------|
A|-0-0-0-0-0-0-0-0-0-0-0-0-0-3-3-3-3-3-3-3-3-3-3-3-3-3-----------------------|
D|-0-0-0-0-0-0-0-0-0-0-0-0-0-3-3-3-3-3-3-3-3-3-3-3-3-3-----------------------|

e|---------------------------------------------------------------------------|
B|---------------------------------------------------------------------------|
G|---------------------------------------------------------------------------|
D|-0-0-0-0-0-0-0-0-0-0-0-0-0-3-3-3-3-3-3-3-3-3-8-8-8-8-----------------------|
A|-0-0-0-0-0-0-0-0-0-0-0-0-0-3-3-3-3-3-3-3-3-3-8-8-8-8-----------------------|
D|-0-0-0-0-0-0-0-0-0-0-0-0-0-3-3-3-3-3-3-3-3-3-8-8-8-8-----------------------|

e|---------------------------------------------------------------------------|
B|---------------------------------------------------------------------------|
G|---------------------------------------------------------------------------|
D|-3-3-3-3-3-3-3-3-3-3-3-3-3-2-2-2-2-2-2-2-2--1--1--1--0---------------------|
A|-3-3-3-3-3-3-3-3-3-3-3-3-3-2-2-2-2-2-2-2-2--1--1--1--0---------------------|
D|-3-3-3-3-3-3-3-3-3-3-3-3-3-2-2-2-2-2-2-2-2--1--1--1--0---------------------|



e|---------------------------------------------------------------------------|
B|---------------------------------------------------------------------------|
G|---------------------------------------------------------------------------|
D|-1-1--0------1-1--0-----1-1--0---1-1--0---1-1--0-0-1--0-0-1----------------|
A|-1-1--0------1-1--0-----1-1--0---1-1--0---1-1--0-0-1--0-0-1----------------|
D|-1-1--0------1-1--0-----1-1--0---1-1--0---1-1--0-0-1--0-0-1----------------|
                                                 x x    x x 
 
                Play this part many times
e|-------------|-------------------------------------------------|------------|
B|-------------|-------------------------------------------------|------------|
G|-------------|-------------------------------------------------|------------|
D|-0-0-0-0-0-0-|-0-0-1--0-0-1--0-0-1--0-0-1--0-0-1--0-0-1--0-0-1-|-1--1--1--0-|
A|-0-0-0-0-0-0-|-0-0-1--0-0-1--0-0-1--0-0-1--0-0-1--0-0-1--0-0-1-|-1--1--1--0-|
D|-0-0-0-0-0-0-|-0-0-1--0-0-1--0-0-1--0-0-1--0-0-1--0-0-1--0-0-1-|-1--1--1--0-|
   x x x x x x   x x    x x    x x    x x    x x    x x    x x    


Chorus 2x
e|---------------------------------------------------------------------------|
B|---------------------------------------------------------------------------|
G|---------------------------------------------------------------------------|
D|-0-0-0-0-0-0-0-0-0-0-0-0-0-3-3-3-3-3-3-3-3-3-8-8-8-8-----------------------|
A|-0-0-0-0-0-0-0-0-0-0-0-0-0-3-3-3-3-3-3-3-3-3-8-8-8-8-----------------------|
D|-0-0-0-0-0-0-0-0-0-0-0-0-0-3-3-3-3-3-3-3-3-3-8-8-8-8-----------------------|

e|---------------------------------------------------------------------------|
B|---------------------------------------------------------------------------|
G|---------------------------------------------------------------------------|
D|-0-0-0-0-0-0-0-0-0-0-0-0-0-3-3-3-3-3-3-3-3-3-3-3-3-3-----------------------|
A|-0-0-0-0-0-0-0-0-0-0-0-0-0-3-3-3-3-3-3-3-3-3-3-3-3-3-----------------------|
D|-0-0-0-0-0-0-0-0-0-0-0-0-0-3-3-3-3-3-3-3-3-3-3-3-3-3-----------------------|

e|---------------------------------------------------------------------------|
B|---------------------------------------------------------------------------|
G|---------------------------------------------------------------------------|
D|-0-0-0-0-0-0-0-0-0-0-0-0-0-3-3-3-3-3-3-3-3-3-8-8-8-8-----------------------|
A|-0-0-0-0-0-0-0-0-0-0-0-0-0-3-3-3-3-3-3-3-3-3-8-8-8-8-----------------------|
D|-0-0-0-0-0-0-0-0-0-0-0-0-0-3-3-3-3-3-3-3-3-3-8-8-8-8-----------------------|

e|---------------------------------------------------------------------------|
B|---------------------------------------------------------------------------|
G|---------------------------------------------------------------------------|
D|-3-3-3-3-3-3-3-3-3-3-3-3-3-2-2-2-2-2-2-2-2--1--1--1--0---------------------|
A|-3-3-3-3-3-3-3-3-3-3-3-3-3-2-2-2-2-2-2-2-2--1--1--1--0---------------------|
D|-3-3-3-3-3-3-3-3-3-3-3-3-3-2-2-2-2-2-2-2-2--1--1--1--0---------------------|



e|---------------------------------------------------------------------------|
B|---------------------------------------------------------------------------|
G|---------------------------------------------------------------------------|
D|-1-1-1--0----1-1-1--0----1-1-1--0----1-1-1---------------------------------|
A|-1-1-1--0----1-1-1--0----1-1-1--0----1-1-1---------------------------------|
D|-1-1-1--0----1-1-1--0----1-1-1--0----1-1-1---------------------------------|


| /  slide up
| \  slide down
| h  hammer-on
| p  pull-off
| ~  vibrato
| +  harmonic
| x  Mute note
===============================================================================
comments
print report bad tab
2 comments total.
+6 reply
machinehead666 wrote on August 19 2009, 04:51 pm

Awesome tab for and awesome song.

0 reply
itzhippotime wrote on August 12 2013, 03:57 pm

play a vibrato on the 16th fret of the 2nd string before the last chorus

I want to post or [tab]
guest
You may want to rate the tab now too:
select rating
Please do not post tabs as comments. Select "correction" instead!