Oops, an error
Loading. Please wait.

Born To Quit bass

version 1
version 1

Whole song

Interactive

1,223 views 1 this week
no commentswrite comment
1 2 3 4 5
1 last vote to show rating
add to favorites
×
Save as Personal and add changes to this tab that will be seen only by you. Learn more ›
×
You can save this tab as Personal to edit and correct it or add notes. All changes will be seen only by you. Learn more »
launch autoscroll
font size
0
reset
guitar tuner
edit
Autoscroll
slow
fast
+/-
esc
set tempo
stop
++++++++++++++++++++++++++
| The Used- Born To Quit |
++++++++++++++++++++++++++


"Go ahead and prove me wrong..."

Tuning: Drop D (DADG)


Intro
1.
G|---------------------------------------------------------|
D|---------------------------------------------------------|
A|---------------0-1~--0---------------------0-1~--0-4~----|
D|-0~--0-2-3-2-0---------5~----0~--0-2-3-2-0---------------|

Verse
"Exercise the demon that is living up inside you..."
2.
G|-----------------------------------------------------------|
D|-----------7-5-33x--3x---3---------------------------------|
A|-55x--5x-5-------------3---3-------------------------------|
D|-----------------------------5-3h5--3h5-5--3-3-3-3-3-2-5-3-|

"Try to get beside yourself..."
3.
G|------------------------------------------------------------|
D|-----------7-5-33x--3x---3----------------------------------|
A|-55x--5x-5-------------3---3--------3h5-5-3-----------------|
D|-----------------------------5-3h5----------3-3-3-3-3-2-5-3-|

"Sharpen up your teeth..."
4.
G|--------------------------------------------------------------|
D|------------7-5-33x--3x---3-----------------------------------|
A|-55x--5x-5--------------3---3-------3h5-5-3-------------------|
D|------------------------------5-3h5---------3-3-3-3-3x--------|

Chorus
"The further you go, the less you know..."
5.
G|-------------------------------------------------------------------------|
D|-------------------------------------------------------------------------|
A|-----------------0-000-000-0-0-0-----------------1-111-111-1-1-3~--------|--x2
D|-3-333-333-3-3-3-----------------0-000-000-0-0-0-------------------------|

Outro
6.
G|-----------|
D|-----------|
A|-1~--------|
D|-----------|

Verse
"Something supernatural..."
7.
G|-----------------------------------------------------------|
D|-----------7-5-33x--3x---3---------------------------------|
A|-55x--5x-5-------------3---3-------------------------------|
D|-----------------------------5-3h5--3h5-5--3-3-3-3-3-2-5-3-|

"How they kept you demonized..."
8.
G|------------------------------------------------------------|
D|-----------7-5-33x--3x---3----------------------------------|
A|-55x--5x-5-------------3---3--------3h5-5-3-----------------|
D|-----------------------------5-3h5----------3-3-3-3-3-2-5-3-|

"Sharpen up your teeth..."
9.
G|-----------------------------------------------------------------|
D|-----------------------------------------------------------------|
A|---------------0-1~--0---------------------0-1~--0-4~----1-3~----|
D|-0~--0-2-3-2-0---------5~----0~--0-2-3-2-0-----------------------|

Chorus
"The further you go, the less you know..."
10.
G|-------------------------------------------------------------------------|
D|-------------------------------------------------------------------------|
A|-----------------0-000-000-0-0-0-----------------1-111-111-1-1-3~--------|--x2
D|-3-333-333-3-3-3-----------------0-000-000-0-0-0-------------------------|

Outro
"You've blown it.."
11.
G|-------------------------------------------------------------------------------------------|
D|-------------------------------------------------------------------------------------------|
A|-------1-3~--------1-3~--------1-3~-----------------1-3~--------1-3~--------1-3~-----------|
D|-0~--0-------0~--0-------0~--0-------3~-------0~--0-------0~--0-------0~--0-------3~-------|

Bridge
"Sharpen up your teeth..."
12.
G|------------------------------------------------------------------|
D|------------------------------------------------------------------|
A|------------------------------------------------------1-3~--------|
D|-0~---------------------------------------------------------------|

Chorus
"The further you go, the less you know..."
13.
G|-------------------------------------------------------------------------|
D|-------------------------------------------------------------------------|
A|-----------------0-000-000-0-0-0-----------------1-111-111-1-1-3~--------|
D|-3-333-333-3-3-3-----------------0-000-000-0-0-0-------------------------|

"You need to let go..."
14.
G|-------------------------------------------------------------------------------|
D|-------------------------------------------------------------------------------|
A|-----------------0-000-000-0-1-3~--------1-3~--------1-3~--1~--1-1-3~--1-1-1-1-|
D|-3-333-333-3-3-3-------------------0~--0-------0~--0---------------------------|

Outro
"You've blown it..."
15.
G|---------------------------------------------------------|
D|---------------------------------------------------------|
A|---------------0-1~--0---------------------0-1~--0-4~----|--x2
D|-0~--0-2-3-2-0---------5~----0~--0-2-3-2-0---------------|



Lyrics:

Exercise the demon
That is living up inside you
After all you think you've been trough
Just what have you been through?

Try to get beside yourself
This tearing at your insides
If you end up on the wrong side
Always standing so strong

Sharpen up your teeth
Your dreams are more than worth defending
In a fight that's never ending
Go on, go ahead and prove me wrong

The further you go, the less you know
You're born to quit, you've blown it
You need to let go of letting go
You're full of shit, you're born to quit

Something supernatural
It seems it could possess you
No malevolence about you
Yeah, that might not be true

How they kept you demonized 
The fucked up situation
How you've killed off all the angels
Taking notice of you



+++++++++++++++++++++++++++++++++
| RaiLeff                       |
| Underground__Dora@Hotmail.Com |
+++++++++++++++++++++++++++++++++
Suggest correction
Creating personal tab
Creating personal tab
You can edit any tab online and save it as your Personal.

You can edit, replace or remove any tab part or add personal notes – all changes will be seen only by you.

Personal tabs can be accessed anytime from any device, even offline.
Learn more »
Give kudos to tab author, rate the tab!
1 2 3 4 5
comments
print report bad tab
guest
You may want to rate the tab now too:
select rating
Wanna post a correction for this tab? Suggest correction