Oops, an error
Loading. Please wait.

Buried Myself Alive Bass Tab

version 5
version 5
450 views 1 this week
no commentswrite comment
1 2 3 4 5
please rate
add to favorites
launch autoscroll
font size
0
reset
guitar tuner
Tab Pro tools
  • play this tab
  • loop segment
  • change instrument
  • show fretboard
  • metronome
×
Best way to learn
"Buried Myself Alive"
Autoscroll
slow
fast
+/-
esc
set tempo
stop
The Used
Buried Myself Alive
Tabbed by:Steve-o



Intro/Chorus
G|----------------------------------------------------------------|
D|----------------------------------------------------------------|
A|------------------999999------------------3333333333-5555555555-|x1
E|-3333333333333333--------0000000000000000-----------------------|

 

Verse
G|-------------------------------------------|
D|-------------------------------------------|
A|-------------------------------------------|x2
E|-10--10-10--10\12--12-12--12/7--7-7--7\12~-|


Fill
G|---------|
D|---------|
A|---------|x4
E|-10-1212-|


Chorus
G|----------------------------------------------------------------|
D|----------------------------------------------------------------|
A|------------------999999------------------3333333333-5555555555-|x1
E|-3333333333333333--------0000000000000000-----------------------|


Riff 2
G|-------------------------------------------|
D|-------------------------------------------|
A|-------------------------------------------|x2
E|-10--10-10--10\12--12-12--12/7--7-7--7\12~-|


Riff 1
G|----------------------------------------------------------------|
D|----------------------------------------------------------------|
A|------------------999999------------------3333333333-5555555555-|x1
E|-3333333333333333--------0000000000000000-----------------------|

Bridge
G|-------------------------------------------------------------------
D|--------------------------------------------------5-5-5------------
A|-7-7-5-5-3-3-7-7-5-5-3-3-3-3-3-3-3-3-3-3-3-3-7-7-7------3-3-3-3-3-3
E|-------------------------------------------------------------------


continued
G|------------------|
D|-------5-5-5------|
A|-7-7-7-------3-3-3|x5
E|------------------|



Outro Chorus
G|----------------------------------------------------------------|
D|----------------------------------------------------------------|
A|------------------999999------------------3333333333-5555555555-|x2
E|-3333333333333333--------0000000000000000-----------------------|

comments
We did not receive enough feedback on this tab! Please rate:
print report bad tab
1 2 3 4 5
I want to post or [tab]
guest
You may want to rate the tab now too:
select rating
Please do not post tabs as comments. Select "correction" instead!