Oops, an error
Loading. Please wait.

Buried Myself Alive Bass Tab

version 7
version 7
675 views 1 this week
1 commentread comment
1 2 3 4 5
accurate
x 1
add to favorites
launch autoscroll
font size
0
reset
guitar tuner
Tab Pro tools
  • play this tab
  • loop segment
  • change instrument
  • show fretboard
  • metronome
Autoscroll
slow
fast
+/-
esc
set tempo
stop
Contributor
Difficulty
intermediate
Ok so I saw this song on here and have been playing it with my band for a few weeks now
the tab that everyone agreed was the best was still wrong. What I have written below is
copied from another tab but fixed up so that you can play it correctly. I didnt pull 
out of any book, but by listening to the song and putting it here I believe its almost
correct. If you have any comments or questions email me at: sbdrew2@gmail.com!

Intro
G|--------R--------------------------------------|
D|--------E-------5-5-5-5-5-5-5-5-2-2-2-2-2-2-2-2|
A|--------S--------------------------------------|
E|-3(12x)-T-0(18x)-------------------------------|

Verse
G|-----------------------------------------------------------------|
D|-5-5-5-5-5-5-5-5-5-5-5-5-5-5-5h7-2-2-2-2-2-2-2-2-2-2-2-2-2-2-2-2-|**
A|-----------------------------------------------------------------|
E|-----------------------------------------------------------------|

verse continued
G|-----------------------------------------------------------------|
D|---------------------------------5-5-5-5-5-5-5-5-5-5-5-5-5-5-5-5-|
A|-3-3-3-3-3-3-3-3-5-5-5-5-5-5-5-5---------------------------------|
E|-----------------------------------------------------------------|


chorus
G|--------R--------------------------------------|
D|--------E-------5-5-5-5-5-5-5-5-2-2-2-2-2-2-2-2|
A|--------S--------------------------------------|
E|-3(12x)-T-0(18x)-------------------------------|


Verse
G|-----------------------------------------------------------------|
D|-5-5-5-5-5-5-5-5-5-5-5-5-5-5-5h7-2-2-2-2-2-2-2-2-2-2-2-2-2-2-2-2-|**
A|-----------------------------------------------------------------|
E|-----------------------------------------------------------------|


verse continued
G|-----------------------------------------------------------------|
D|---------------------------------5-5-5-5-5-5-5-5-5-5-5-5-5-5-5-5-|
A|-3-3-3-3-3-3-3-3-5-5-5-5-5-5-5-5---------------------------------|
E|-----------------------------------------------------------------|


chorus
G|--------R--------------------------------------|
D|--------E-------5-5-5-5-5-5-5-5-2-2-2-2-2-2-2-2|
A|--------S--------------------------------------|
E|-3(12x)-T-0(18x)-------------------------------|


end of chorus/Bridge (nicer than that my foot on ur neck....)
G|--------------------------------------------------------------------|
D|--------------------------------------------------5-5-5-------------|
A|-7-7-5-5-3-3-7-7-5-5-3-3-3-3-3-3-3-3-3-3-3-3-7-7-7------3-3-3-3-3-3-|
E|--------------------------------------------------------------------|


continued
G|------------------| play 5 more times
D|-------5-5-5------|
A|-7-7-7-------3-3-3|
E|------------------|


back to chorus


*~*Order*~*

Intro(1x)
Verse(2x)
Chorus(1x)
Verse(1x)
Chorus(1x)
Bridge(the 7-7-7-5-5-5-3-3-3 is played 6 times)
Chorus(2x)

I have a few parts above that I have included "**" to the side of the lines. I put them
because Jeph plays some weird rhythm here. Its sounds as if it is some sort of
every second note so that the second note is a bit smaller than the note before it. Just 
to the song and you will know what I mean. Good luck and have fun. This is a great song!
comments
We did not receive enough feedback on this tab! Please rate:
print report bad tab
1 2 3 4 5
1 comment total.
0 reply
hellbassist1 wrote on July 26 2008, 10:20 pm

the verse is a bit different as inbetween some of the names he slides up a few frets about evver for notes before changing i think its about the 12th fret. if you listen you can just about hear it ;) good tab though 4 stars

I want to post or [tab]
guest
You may want to rate the tab now too:
select rating
Please do not post tabs as comments. Select "correction" instead!