Oops, an error
Loading. Please wait.

Buried Myself Alive Bass Tab

version 8
version 8
580 views 1 this week
no commentswrite comment
1 2 3 4 5
please rate
add to favorites
launch autoscroll
font size
0
reset
guitar tuner
Tab Pro tools
  • play this tab
  • loop segment
  • change instrument
  • show fretboard
  • metronome
×
Best way to learn
"Buried Myself Alive"
Autoscroll
slow
fast
+/-
esc
set tempo
stop
Contributor
Difficulty
Tuning
novice
D A D G B E
-------------------------------------------------------------------------------
			     BURIED MYSELF ALIVE - The Used
-------------------------------------------------------------------------------

Tabbed By : JMarkel91
e-mail: jjmarkel91@hotmail.com

Tuning: DROP D (D-A-D-G)


ENJOY,...


INTRO

G|---------------------------------------------------------------------------|
D|---------------------------------------------------------------------------|
A|--------------------------------------3x16--------5x13---------------------|
D|-----5x24-----RESTx8------2x32---------------------------------------------|

VERSE 1

G|-----------------------------------------------------------------------------|
D|-----------------------------------------------------------------------------|
A|10--10\\\----10--10~---9h10p9--7--7\\\----7--7~---7\3--3---3//---------------|
D|-----------------------------------------------------------------------------|


(FIRST ENDING)                  (SECOND ENDING)

G|---------------------------------------------------------------------------|
D|--------------------------------------------12------12-------12-------12---|
A|5--5---5\10~-------------------5--5---5\10----10--10--10-10-----10--10-----|
D----------------------------------------------------------------------------|

CHORUS (SAME AS INTRO)

G|---------------------------------------------------------------------------|
D|---------------------------------------------------------------------------|
A|--------------------------------------3x16--------5x13---------------------|
D|-----5x24-----RESTx8------2x32---------------------------------------------|


VERSE 2

G|---------------------------------------------------------------------------|
D|---------------------------------------------------------------------------|
A|10--10\\\----10--10~---10\7--7\\\----7--7~---10\3--3---3/5--5---5/10~------|
D|---------------------------------------------------------------------------|


BRIDGE

G|---------------------------------------------------------------------------|
D|---------------------------------------------------------------------------|
A|7--7777--5--5555--3--3333--3--3333--7--7777--5--5555--3--3333--3--3333-----|
D|---------------------------------------------------------------------------|

G|---------------------------------------------------------------------------|
D|---------------------------------------------------------------------------|
A|3~------HOLD OUT-----------------------3~-------HOLD OUT-------------------|
D|---------------------------------------------------------------------------|

G|---------------------------------------------------------------------------|
D|---------------------------------------------------------------------------|
A|7--7777--10--10101010--3--3333--5--5555---(REPEAT 4X)----------------------|
D|---------------------------------------------------------------------------|

G|---------------------------------------------------------------------------|
D|---------------------------------------------------------------------------|
A|7--7777--5--5555--3--3333--5--5555--7--7777--5--5555--3--3333--5--5555-----|
D|---------------------------------------------------------------------------|

ORDER:
Intro
Verse 1
Chorus
Verse 2
Chorus
Bridge
Chorus(2x)

| /  slide up
| \  slide down
| h  hammer-on
| p  pull-off
| ~  vibrato
| +  harmonic
| x  Mute note
===============================================================================
comments
We did not receive enough feedback on this tab! Please rate:
print report bad tab
1 2 3 4 5
I want to post or [tab]
guest
You may want to rate the tab now too:
select rating
Please do not post tabs as comments. Select "correction" instead!