Oops, an error
Loading. Please wait.

Choke Me Tab

version 2
version 2

Whole song

Interactive

873 views 1 this week
2 commentsread comments
1 2 3 4 5
excellent!
x 2
add to favorites
launch autoscroll
font size
0
reset
how to read this tab
guitar tuner
Tab Pro tools
  • play this tab
  • loop segment
  • change instrument
  • show fretboard
  • metronome
Autoscroll
slow
fast
+/-
esc
set tempo
stop
Contributor
----------------------------------------------------------------------------
                             Choke Me - The Used
----------------------------------------------------------------------------


 

Guitar 1: D A D G B E


 Intro:


Guitar 1:
 PM  PM            PM  PM
|-----------------|--------------------|
|-----------------|--------------------|
|-----------------|--------------------|
|-----------------|-------2-(2)----(2)-|
|-0-2-0h2---------|-0-2-0-2-(2)----(2)-|
|-0-2-0h2---------|-0-2-0-2-(2)----(2)-|


                  PM 
|-------------------|-------------------|
|-------------------|-------------------|
|-----------5-5-----|---------5-5-------| x3
|---2-2-5-5-5-5-3-3-|-2-2-5-5-5-5-3-3---|
|-0-2-2-5-5-3-3-3-3-|-2-2-5-5-3-3-3-3---|
|-0-2-2-5-5-----3-3-|-2-2-5-5-----3-3---|


Pre-verse:
    PM--|   PM--|
|-----------------|
|-----------------|
|-----------------|
|-2-------2-------|
|-2-0-0-0-2-0-0-0-|
|-2-0-0-0-2-0-0-0-|


Verse:
                                                                  PM--|
|----------------|-------------------|--------------|--------------------|
|----------------|-------------------|--------------|--------------------|
|----------------|-------------------|--------------|--------------------|
|-2-2---2-2------|-2-2---2-2---2-2-2-|-2-2---2-2----|-2-2---2-2----------|
|-2-2---2-2------|-2-2---2-2---2-2-2-|-2-2---2-2----|-2-2---2-2---3-2-0--|
|-2-2---2-2------|-2-2---2-2---2-2-2-|-2-2---2-2----|-2-2---2-2---3-2-0--|


   Pre-chorus:
    PM--|   PM--|   PM--|   PM  PM
|-----------------------------------|----------------------------------|
|o---------------------------------o|----------------------------------|
|-----------------------------------|----------------------------------|
|------------------5-5-5------------|----------------------------------|
|o-2-2-2-0-5-5-5-0-3-3-3-0-3-3-3-0-o|-2-2-2-2-2-2-2-2-0-0-0-0-0-0-0-0--|
|--2-2-2-0-5-5-5-0-------0-3-3-3-0--|-2-2-2-2-2-2-2-2-0-0-0-0-0-0-0-0--|


 Chorus:
|-----------------|-----------------|-----------------|
|-----------------|-----------------|-----------------|
|---------5-5-----|---------5-5-----|---------5-5-----|
|-2-2-5-5-5-5-3-3-|-2-2-5-5-5-5-3-3-|-2-2-5-5-5-5-3-3-|
|-2-2-5-5-3-3-3-3-|-2-2-5-5-3-3-3-3-|-2-2-5-5-3-3-3-3-|
|-2-2-5-5-----3-3-|-2-2-5-5-----3-3-|-2-2-5-5-----3-3-|



|-------------------|
|-------------------|
|---------5-5-------|
|-2-2-5-5-5-5-3-3-0-|
|-2-2-5-5-3-3-3-3-0-|
|-2-2-5-5-----3-3-0-|


Pre-verse:
|-------------------|
|-------------------|
|-------------------|
|-2---(2)--2---(2)--|
|-2---(2)--2---(2)--|
|-2---(2)--2---(2)--|


 Verse:
|----------------|-------------------|----------------|-----------------|
|----------------|-------------------|----------------|-----------------|
|----------------|-------------------|----------------|-----------------|
|-2-2---2-2------|-2-2---2-2---2-2-2-|-2-2---2-2------|-2-2---2-2-------|
|-2-2---2-2------|-2-2---2-2---2-2-2-|-2-2---2-2------|-2-2---2-2-------|
|-2-2---2-2------|-2-2---2-2---2-2-2-|-2-2---2-2------|-2-2---2-2-------|



Bridge:

  PM----------------------------------------------|
|-----------------|-----------------|-----------------|
|-----------------|-----------------|-----------------|
|-----------------|-----------------|-----------------|
|-----------------|-----------------|-----------------|
|-3-2-0-3-2-0-3-2-|-0-3-2-0-3-2-0-3-|-2-0-3-2-0-3-2-0-|
|-3-2-0-3-2-0-3-2-|-0-3-2-0-3-2-0-3-|-2-0-3-2-0-3-2-0-|



|------------------|------------------|------------------|
|o-----------------|------------------|-----------------o|
|------------------|------------------|------------------|
|--3-2-0-3-2-0-3-2-|-0--3-2-0-3-2-0-3-|-2-0-3-2-0-3-2-0--|
|o-3-2-0-3-2-0-3-2-|-0--3-2-0-3-2-0-3-|-2-0-3-2-0-3-2-0-o|
|--3-2-0-3-2-0-3-2-|-0--3-2-0-3-2-0-3-|-2-0-3-2-0-3-2-0--|



                      PM----------------------------|
|-------------------|---------------------------------|
|-------------------|---------------------------------|
|-------------------|-9-9-9-9-9-9-9-9-9-9-9-9-9-9-9-9-|
|-3-2-0-3-2-x---x---|---------------------------------|
|-3-2-0-3-2-x---x---|---------------------------------|
|-3-2-0-3-2-x-0-x-0-|---------------------------------|


      
   PM|
|-----------------------------|
|--------0--0----0--0--0----0-|
|-10-10-10-10---10-10-10---10-|
|--------9--9----9--9--9----9-|
|--------7--7----7--7--7----7-|
|-----------------------------|


  
|---------------------------|---------------------------|
|o--0--0----0--0--0----0--0-|--0----0--0--0----0--0--0-o|
|--10-10---10-10-10---10-10-|-10---10-10-10---10-10-10--|
|---9--9----9--9--9----9--9-|--9----9--9--9----9--9--9--|
|o--7--7----7--7--7----7--7-|--7----7--7--7----7--7--7-o|
|---------------------------|---------------------------|


 Outro:
|----------------|------------------|-------------|
|----------------|o----------------o|-------------|
|----------------|------------------|-------------|
|-x-2-0-2--------|--0-2-0-2---------|-0-2-0-2-----|
|-x-2-0-2--------|o-0-2-0-2--------o|-0-2-0-2-----|
|-x-2-0-2--------|--0-2-0-2---------|-0-2-0-2-----|



|-----------------|-------------------|----------------|-----------------|
|o----------------|-------------------|----------------|----------------o|
|-----------------|-------------------|----------------|-----------------|
|--2-2---2-2------|-2-2---2-2---2-2-2-|-2-2---2-2------|-2-2---2-2-------|
|o-2-2---2-2------|-2-2---2-2---2-2-2-|-2-2---2-2------|-2-2---2-2------o|
|--2-2---2-2------|-2-2---2-2---2-2-2-|-2-2---2-2------|-2-2---2-2-------|



|------------|--------|
|------------|--------|
|------------|--------|
|-0-2-0-2----|-(2)----|
|-0-2-0-2----|-(2)----|
|-0-2-0-2----|-(2)----|



| PM palm mute note
| /  slide up
| \  slide down
| h  hammer-on
| p  pull-off
| ~  vibrato
| +  harmonic
| x  Mute note
============================================================================
comments
We did not receive enough feedback on this tab! Please rate:
print report bad tab
1 2 3 4 5
2 comments total.
0 reply
shugo449 wrote on June 30 2007, 09:08 am

nice
5*

0 reply
NemX162 wrote on February 13 2008, 09:59 am

Looks pretty sweet to me.

I want to post or [tab]
guest
You may want to rate the tab now too:
select rating
Please do not post tabs as comments. Select "correction" instead!