Oops, an error
Loading. Please wait.

Cut Up Angels Bass Tab

version 1
version 1

Whole song

Interactive

1,859 views 3 this week
5 commentsread comments
1 2 3 4 5
please rate
add to favorites
launch autoscroll
font size
0
reset
guitar tuner
Tab Pro tools
  • play this tab
  • loop segment
  • change instrument
  • show fretboard
  • metronome
×
Best way to learn
"Cut Up Angels"
Autoscroll
slow
fast
+/-
esc
set tempo
stop
Contributor
Difficulty
novice
Cut Up Angels - The Used ( Best emorock Band!!!)

Tabbed By : ReViN EnRiQuEz
e-mail: revin_schyte@yahoo.com

Tuning:B-E-A-D-G

Intro (after plucking)
G|-----------------------|
D|-----------------------|
A|--------9--------------|
E|--10-10----------------|
B|----------12-----------|


Verse
G|----------------------------------------|
D|----------------------------------------|
A|---3-3-2-------5------------------------|x4
E|---------5---5-------6-0-3---6-1/3-0----|
B|-----------------6----------------------|


Pre-Chorus
G|--------------------------------------------------------------|
D|--------------------------------------------------------------|
A|--1-3-3/5555--------------------------------------------------|
E|--------------------------------------------------------------|
B|--------------------------------------------------------------|


Chorus
G|--------------------------------------------------------------|
D|--------------------------------------------------------------|
A|--5555-4------0-1-2222-4--------------------------------------|x1
E|---------5555------------5------------------------------------|
B|---------------------------3333-------------------------------|

(repeat Verse)

Chorus 2
G|--------------------------------------------------------------|
D|--------------------------------------------------------------|
A|--5555-4------0-1-2222-4--------------------------------------|x2
E|---------5555------------5------------------------------------|
B|---------------------------3333-------------------------------|

G|--------------------------------------------------------------|
D|--------------------------------------------------------------|
A|--------------------------------------------------------------|
E|--------------------------------------------------------------|
B|--3-3-3-3---3-3-3-3-------------------------------------------|


Bridge
G|--------------------------------------------------------------|
D|--------------------------------------------------------------|
A|--3333/5555---------------------------------------------------|x2
E|------------5555/8888-2222/5555-6666/9999---------------------|
B|--------------------------------------------------------------|

(repeat chorus 2)
(repeat chorus 2 again with slight diff.)

Outro
G|------------------------------------|
D|------------------------------------|
A|-2222-------------------------------|
E|------3333--------------------------|
B|------------------------------------|

End With
G|-----------------|
D|-----------------|
A|----3------------|
E|-----------------|
B|-----------------|

Tnx ... my first tab for my fave band
Tnx to my band 305
-Myles/Rhythm/Lead Vocals
-Rev/Bass/Vocals
-Louiee/Lead
-Jem/Drums
-J.M/Vocals
-Ian/Manager/Vocals
!!!Sacredians Rule!!!

comments
We did not receive enough feedback on this tab! Please rate:
print report bad tab
1 2 3 4 5
5 comments total. Showing first comments.
0 reply
f1f2 wrote on May 29 2006, 10:43 am

is this with capo 2nd fret?

0 reply
revenri wrote on May 30 2006, 02:02 am

nope , just tune your bass a little higher than the ordinary beadg , bud dont put it on B#E#A#D#G# -Rev-

0 reply
revenri wrote on May 30 2006, 02:03 am

Pls Rate my work if its correct

I want to post or [tab]
guest
You may want to rate the tab now too:
select rating
Please do not post tabs as comments. Select "correction" instead!