Oops, an error
Loading. Please wait.

Cut Up Angels Tab

version 2
version 2

Whole song

Interactive

5,427 views 3 this week
4 commentsread comments
1 2 3 4 5
accurate
x 3
add to favorites
launch autoscroll
font size
0
reset
how to read this tab
guitar tuner
Tab Pro tools
  • play this tab
  • loop segment
  • change instrument
  • show fretboard
  • metronome
×
Best way to learn
"Cut Up Angels"
Autoscroll
slow
fast
+/-
esc
set tempo
stop
Song: Cut Up Angels
Artist: The Used
Album: In Love and Death
Tabbed by: JoeyHustle  (JoeyHustlegmail.com)

Although the other tab is guaranteed "100% correct", he must have meant 100% wrong,
This is the correct tab.  
There's only one guitar in the band, but the song was recorded with two.

Tuning: Standard eBGDAE

Intro  (light distortion, bridge pickup)

   let ring
e|---------------------|     |--------------------|
B|--7---7--------------|     |-8---8---------8~~--|
G|----7---7---6h7-6h7--|     |---7---7---6h7------|
D|---------------------|3x   |--------------------| 1x
A|---------------------|     |--------------------|
D|---------------------|     |--------------------|

Verse (Gtr 1)  light dist

e|---------------------------------|
B|-7--7-7--------------------------|
G|-7--7-7-4--4---------------------|
D|-7--7-7-4--4--2-4--4/5--7--7-----| 4x
A|-5--5-4-2--2--2-4--4/5--7--7-----|
D|--------------0-2--2/3--5--5-----|

Verse (Gtr 2)  light dist

e|-----------------------------------|
B|-3--3-5/7-5\3---7--7----8-8-8/10\\-|
G|-----------------------------------|
D|-----------------------------------| 4x
A|-----------------------------------|
D|-----------------------------------|



PreChorus  (Unison)
e|----------------|
B|----------------|
G|----------------|
D|-8--88--8--888--| 1x
A|-8--88--8--888--|
D|-6--66--6--666--|

Chorus 1 (Unison) Heavy Dist

e|--------------------------------------------|
B|--------------------------------------------|
G|-9-9----------------------------------------|
D|-9-9-x4---9-9-x4--11-11-x4--7-7-x2--9-9-x2--| 1x
A|-7-7------9-9-----11-11-----7-7-----9-9-----|
D|-0-0------7-7-----9--9------5-5-----7-7-----|

Repeat Verse
Repeat Prechorus
Repeat Chorus 1

Chorus 2 (unison)  Heavy Dist
e|---------------------------------------------|
B|---------------------------------------------|
G|-9-9-----------------------------------------|
D|-9-9-x4---9-9-x4--10-10-x4--7-x7--7-x7--7-x8-| 1x
A|-7-7------9-9-----10-10-----7-----7-----7----|
D|-0-0------7-7-----8--8------5-----5-----5----|



Bridge
Guitar 1                                       Guitar 1
e|--------------------------------------|     |------------------|
B|--77777777----------------------------|     |------------------|
G|--77777777----------------------------|     |-5555555555555555-|
D|--77777777-44444444-99999999-55555555-|2x   |-5555555555555555-|
A|--55555555-44444444-99999999-55555555-|     |-3333333333333333-|
D|-----------22222222-77777777-33333333-|     |------------------|
                                              Guitar 2
Guitar 2 plays Intro 2x during bridge, then<  |------------------|
                                              |-7h8-7h8-7h8-7h8--|
                                              |------------------|x2
                                              |------------------|
                                              |------------------|
                                              |------------------|

Repeat Verse, but only play it 2x instead of four times
Repeat Chorus Part 1
Repeat Chorus Part 2, but dont play the last part of it
Repeat Chorus Part 1
Repeat Chorus Part 2

Outro
e|-------------------|   
B|-------------------|    
G|-------------------|    
D|-11-x8---10-x8-----|3x  
A|-11------10--------|    
D|-9-------8---------|   

e|-------------------|   
B|-------------------|    
G|-------------------|    
D|-11-x8----7-x8-----|1x  
A|-11-------7--------|    
D|-9--------5--------|    
 

End
e|---|
B|---|
G|---|
D|-2-|1x
A|-2-|
D|-0-|
comments
We did not receive enough feedback on this tab! Please rate:
print report bad tab
1 2 3 4 5
4 comments total. Showing first comments.
0 reply
MCRrocks wrote on April 24 2005, 12:00 am

uhm his intro is right, yours is wrong...

0 reply
latta_pimpjuice wrote on July 30 2005, 12:00 am

vhgfdchdh

0 reply
latta_pimpjuice wrote on July 30 2005, 12:00 am

dude ur a f#$%# retard the second guitar is a piano

I want to post or [tab]
guest
You may want to rate the tab now too:
select rating
Please do not post tabs as comments. Select "correction" instead!