Oops, an error
Loading. Please wait.

Cut Up Angels Bass Tab

version 3
version 3

Whole song

Interactive

507 views 1 this week
1 commentread comment
1 2 3 4 5
not so good
x 1
add to favorites
launch autoscroll
font size
0
reset
guitar tuner
Tab Pro tools
  • play this tab
  • loop segment
  • change instrument
  • show fretboard
  • metronome
Autoscroll
slow
fast
+/-
esc
set tempo
stop
Contributor
Difficulty
intermediate
Cut Up Angels                                   
The Used
Bass

Intro 
G||-------|-------|-------|-----------------------------|
D||-------|-------|-------|-----------------------------|
A||-------|-------|-------|--------------0----0---------|
D||-------|-------|-------|-----------------------(19)--|
 
Verse 1
G||--------------------------|--------------------------|
D||--0-----0-----------------|--------------------------|
A||-----------4--2-----2-----|--------------0--0--0--0--|
D||-----------------------2--|--4-----4--4--------------|
 
G||--------------------------|--------------------------|
D||--0-----0-----------------|--------------------------|
A||-----------4--2-----2-----|--------------0--0--0--0--|
D||-----------------------2--|--4-----4--4--------------|

G||--------------------------|--------------------------|
D||--0-----0-----------------|--------------------------|
A||-----------4--2-----2-----|--------------0--0--0--0--|
D||-----------------------2--|--4-----4--4--------------|
 
G||--------------------------|--------------------------|
D||--0-----0-----------------|--------------------------|
A||-----------4--2-----2-----|--------------0--0--0--0--|
D||-----------------------2--|--4-----4--4--------------|
  
G||--------------------------|
D||--------------------------|
A||--1--1--1--1--1--1--1--1--|
D||--------------------------|

Chorus
G||--------------------------|
D||--2--2--2--2--2--2--2--4--|
A||--------------------------|
D||--------------------------|
 
G||--------------------------|--------------------------|
D||--------------------------|--------------------------|
A||--2--2--2--2--2--2--2-----|--4--4--4--4--4--4--4--4--|
D||-----------------------2--|--------------------------|
 
G||--------------------------|
D||--------------------------|
A||--0--0--0--0--2--2--2--2--|
D||--------------------------|

Verse 2
G||--------------------------|--------------------------|
D||--0-----0-----------------|--------------------------|
A||-----------4--2-----2-----|--------------0--0--0--0--|
D||-----------------------2--|--4-----4--4--------------|
 
G||--------------------------|--------------------------|
D||--0-----0-----------------|--------------------------|
A||-----------4--2-----2-----|--------------0--0--0--0--|
D||-----------------------2--|--4-----4--4--------------|

G||--------------------------|--------------------------|
D||--0-----0-----------------|--------------------------|
A||-----------4--2-----2-----|--------------0--0--0--0--|
D||-----------------------2--|--4-----4--4--------------|
 
G||--------------------------|--------------------------|
D||--0-----0-----------------|--------------------------|
A||-----------4--2-----2-----|--------------0--0--0--0--|
D||-----------------------2--|--4-----4--4--------------|
  
G||--------------------------|
D||--------------------------|
A||--1--1--1--1--1--1--1--1--|
D||--------------------------|

Chorus   
G||--------------------------|--------------------------|
D||--2--2--2--2--2--2--2--4--|--------------------------|
A||--------------------------|--2--2--2--2--2--2--2-----|
D||--------------------------|-----------------------2--|

G||--------------------------|--------------------------|
D||--------------------------|--------------------------|
A||--4--4--4--4--4--4--4--4--|--0--0--0--0--2--2--2--2--|
D||--------------------------|--------------------------|
 
G||--------------------------|--------------------------|
D||--2--2--2--2--2--2--2--4--|--------------------------|
A||--------------------------|--2--2--2--2--2--2--2-----|
D||--------------------------|-----------------------2--|

G||--------------------------|--------------------------|
D||--------------------------|--------------------------|
A||--3--3--3--3--3--3--3--3--|--0--0--0-----0--0--0-----|
D||--------------------------|--------------------------|

G||--------------------------|--------------------------|
D||--------------------------|--------------------------|
A||--0--0--0-----0--0--0-----|--0--0--0--0--0--0--0--0--|
D||--------------------------|--------------------------|

Bridge 
G||--------------------------|--------------------------|
D||--0--0--0--0--0--0--0--0--|--------------------------|
A||--------------------------|--------------------------|
D||--------------------------|--4--4--4--4--4--4--4--4--|
 
G||--------------------------|--------------------------|
D||--------------------------|--------------------------|
A||--2--2--2--2--2--2--2--2--|--------------------------|
D||--------------------------|--5--5--5--5--5--5--5--5--|
 
G||--------------------------|--------------------------|
D||--------------------------|--------------------------|
A||--5--5--5--5--5--5--5--5--|--------------------------|
D||--------------------------|--4--4--4--4--4--4--4--4--|
  
G||--------------------------|--------------------------|
D||--------------------------|--------------------------|
A||--2--2--2--2--2--2--2--2--|--------------------------|
D||--------------------------|--5--5--5--5--5--5--5--5--|
  
G||--------------------------|--------------------------|
D||--------------------------|--------------------------|
A||--3--3--3--3--3--3--3--3--|--3--3--3--3--3--3--3--3--|
D||--------------------------|--------------------------|

Verse 3  
G||--------------------------|--------------------------|
D||--0-----0-----------------|--------------------------|
A||-----------4--2-----2-----|--------------0--0--0--0--|
D||-----------------------2--|--4-----4--4--------------|
 
G||--------------------------|--------------------------|
D||--0-----0-----------------|--------------------------|
A||-----------4--2-----2-----|--------------0-----------|
D||-----------------------2--|--4-----4--4--------------|

Chorus  
G||--------------------------|--------------------------|
D||--2--2--2--2--2--2--2--4--|--------------------------|
A||--------------------------|--2--2--2--2--2--2--2-----|
D||--------------------------|-----------------------2--|
 
G||--------------------------|--------------------------|
D||--------------------------|--------------------------|
A||--4--4--4--4--4--4--4--4--|--0--0--0--0--2--2--2--2--|
D||--------------------------|--------------------------|

G||--------------------------|--------------------------|
D||--2--2--2--2--2--2--2--4--|--------------------------|
A||--------------------------|--2--2--2--2--2--2--2-----|
D||--------------------------|-----------------------2--|

G||--------------------------|-----------------------|
D||--------------------------|-----------------------|
A||--3--3--3--3--3--3--3--3--|--0--0--0--0-----------|
D||--------------------------|-----------------------|

Outro
G||--------------------------|
D||--2--2--2--2--2--2--2--4--|
A||--------------------------|
D||--------------------------|

G||--------------------------|--------------------------|
D||--------------------------|--------------------------|
A||--2--2--2--2--2--2--2-----|--4--4--4--4--4--4--4--4--|
D||-----------------------2--|--------------------------|
 
G||--------------------------|--------------------------|
D||--------------------------|--2--2--2--2--2--2--2--4--|
A||--0--0--0--0--2--2--2--2--|--------------------------|
D||--------------------------|--------------------------|

G||--------------------------|--------------------------|
D||--------------------------|--------------------------|
A||--2--2--2--2--2--2--2-----|--3--3--3--3--3--3--3--3--|
D||-----------------------2--|--------------------------|
 
G||--------------------------|--------------------------|
D||--------------------------|--------------------------|
A||--0--0--0-----0--0--0-----|--0--0--0-----0--0--0-----|
D||--------------------------|--------------------------|
 
G||--------------------------|--------------------------|
D||--------------------------|--------------------------|
A||--0--0--0--0--0--0--0--0--|--4--4--4--4--4--4--4--4--|
D||--------------------------|--------------------------|
 
G||--------------------------|--------------------------|
D||--------------------------|--------------------------|
A||--3--3--3--3--3--3--3--3--|--4--4--4--4--4--4--4--4--|
D||--------------------------|--------------------------|

G||--------------------------|--------------------------|
D||--------------------------|--------------------------|
A||--3--3--3--3--3--3--3--3--|--4--4--4--4--4--4--4--4--|
D||--------------------------|--------------------------|
 
G||--------------------------|--------------------------|
D||--------------------------|--------------------------|
A||--3--3--3--3--3--3--3--3--|--4--4--4--4--4--4--4--4--|
D||--------------------------|--------------------------|
 
G||--------------------------|-------------------|
D||--------------------------|--2----------------|
A||--0--0--0--0--0--0--0--0--|-------------------|
D||--------------------------|-------------------|
comments
We did not receive enough feedback on this tab! Please rate:
print report bad tab
1 2 3 4 5
1 comment total.
0 reply
someperson wrote on June 14 2007, 04:20 pm

That's really bad... And i'm not just saying that cause i made a Cut Up Angels tab [Mines not amazing either]
I don't see how people think that's the chorus.

I want to post or [tab]
guest
You may want to rate the tab now too:
select rating
Please do not post tabs as comments. Select "correction" instead!