Oops, an error
Loading. Please wait.

Earthquake tab

version 1
version 1

Whole song

Interactive

18,345 views 18 this week
17 commentsread comments
1 2 3 4 5
x 13
add to favorites
×
Save as Personal and add changes to this tab that will be seen only by you. Learn more ›
×
You can save this tab as Personal to edit and correct it or add notes. All changes will be seen only by you. Learn more »
launch autoscroll
font size
0
reset
how to read this tab
guitar tuner
edit
Autoscroll
slow
fast
+/-
esc
set tempo
stop
Author
Song Title: Earthquake
Artist: The Used
Album: Lies For The Liars


Ins.:
	Gtr 1 – Quinn Allman (Lead)
	Gtr 2 – Quinn Allman (Extra)
	Gtr 2 – Quinn Allman (Extra)

Tuning:
	Dropped D Tuning (eBGDAD)


I. INTRO
(Gtr 1 and 2 palm muted)

Gtr 1 (left speaker)
e|---------------|--2-0---------2-0----------|
B|----------2-3--|------3-2-0-------3-2-0----|
G|------0-2------|------------2-----------2--|
D|--0-4----------|---------------------------|
A|---------------|---------------------------|
D|--(repeat 6x)--|---------------------------|

Gtr 2 (right speaker)
e|----------0-2--|---------------------------|
B|------0-2------|---------------------------|
G|----2----------|---------------------------|
D|--0------------|---------------------------|
A|---------------|--5-5-5-5-5-5-7-7-7-7-7-7--|
D|--(repeat 6x)--|--5-5-5-5-5-5-7-7-7-7-7-7--|

Gtr 3
e|--(repeat 2x)--|---------------------------|
B|---------------|---------------------------|
G|--------7~~~~--|---------------------------|
D|--------5~~~~--|---------------------------|
A|--0--0--5~~~~--|--5-5-5-5-5-5-7-7-7-7-7-7--|
D|--0--0---------|--5-5-5-5-5-5-7-7-7-7-7-7--|


II. VERSE

Gtr 1 (Palm Muted)
e|---------------------------------------------------|
B|---------------------------------------------------|
G|---------------------------------------------------|
D|---------------------------------------------------|
A|--0-0-0-0-0-0-0-0-0-0-0-0-0-0-0-0-0-0-0-0-0-0-0-0--|
D|--0-0-0-0-0-0-0-0-0-0-0-0-0-0-0-0-0-0-0-0-0-0-0-0--|
(continued)
e|---------------------------------------------------|
B|---------------------------------------------------|
G|---------------------------------------------------|
D|--4-4-4-4-4-4-4-4-4-4-4-4-4-4-4-4-4-4-4-4-4-4-4-4--|
A|--2-2-2-2-2-2-2-2-2-2-2-2-2-2-2-2-2-2-2-2-2-2-2-2--|
D|---------------------------------------------------|
(continued)
e|---------------------------------------------------|
B|---------------------------------------------------|
G|---------------------------------------------------|
D|---------------------------------------------------|
A|--2-2-2-2-2-2-2-2-2-2-2-2-5-5-5-5-5-5-5-5-5-5-5-5--|
D|--2-2-2-2-2-2-2-2-2-2-2-2-5-5-5-5-5-5-5-5-5-5-5-5--|
(continued)
e|---------------------------------------------------|
B|---------------------------------------------------|
G|---------------------------------------------------|
D|---------------------------------------------------|
A|--0-0-0-0-0-0-0-0-0-0-0-0-0-0-0-0-0-0-0-0-0-0-0-0--|
D|--0-0-0-0-0-0-0-0-0-0-0-0-0-0-0-0-0-0-0-0-0-0-0-0--|
(continued)
e|---------------------------------------------------|
B|---------------------------------------------------|
G|---------------------------------------------------|
D|--4-4-4-4-4-4-4-4-4-4-4-4-4-4-4-4-4-4-4-4-4-4-4-4--|
A|--2-2-2-2-2-2-2-2-2-2-2-2-2-2-2-2-2-2-2-2-2-2-2-2--|
D|---------------------------------------------------|
(continued)
e|---------------------------------------------------|
B|---------------------------------------------------|
G|---------------------------------------------------|
D|--------------------------------------5-5-5-5-5-5--|
A|--2-2-2-2-2-2-2-2-2-2-2-2-5-5-5-5-5-5-5-5-5-5-5-5--|
D|--2-2-2-2-2-2-2-2-2-2-2-2-5-5-5-5-5-5-5-5-5-5-5-5--|



III. CHORUS

Gtr 1
e|---------------------------|---------------------------|2x
B|---------------------------|---------------------------|
G|---------------------------|---------------------------|
D|--0-0-0-0-0-0-7-7-7-7-7-7--|--4-4-4-4-4-4-5-5-5-5-5-5--|
A|--0-0-0-0-0-0-7-7-7-7-7-7--|--4-4-4-4-4-4-5-5-5-5-5-5--|
D|--0-0-0-0-0-0-7-7-7-7-7-7--|--4-4-4-4-4-4-5-5-5-5-5-5--|
Gtr 2
e|---------------------------|--10~~--9~~----------------|
B|---------------------------|--------------10~~--8~~----|
G|---------------------------|---------------------------|
D|---------------------------|---------------------------|
A|---------------------------|---------------------------|
D|---------------------------|---------------------------|



IV. POST - CHORUS

Gtr 1
e|---------------------------------------------------|
B|---------------------------------------------------|
G|---------------------------------------------------|
D|---------------------------------------------------|
A|--0-0-0-0-0-0-0-0-0-0-0-0-0-0-0-0-0-0-0-0-0-0-0-0--|
D|--0-0-0-0-0-0-0-0-0-0-0-0-0-0-0-0-0-0-0-0-0-0-0-0--|
Gtr 2
e|---------------------------------------------------|
B|---------------------------------------------------|
G|---------------------------------------------------|
D|---------------------------------------------------|
A|--------------------------0-2-4-5~--2-0-2-4-5~--2--|
D|---------------------------------------------------|



V. VERSE 2
(Gtr 1 and 2 Palm Muted)

Gtr 1
e|---------------------------------------------------|
B|---------------------------------------------------|
G|---------------------------------------------------|
D|---------------------------------------------------|
A|--0-0-0-0-0-0-0-0-0-0-0-0-0-0-0-0-0-0-0-0-0-0-0-0--|
D|--0-0-0-0-0-0-0-0-0-0-0-0-0-0-0-0-0-0-0-0-0-0-0-0--|
Gtr 2
e|----------0-2---------0-2---------0-2---------0-2--|
B|------0-2---------0-2---------0-2---------0-2------|
G|----2-----------2-----------2-----------2----------|
D|--0-----------0-----------0-----------0------------|
A|---------------------------------------------------|
D|---------------------------------------------------|



Gtr 1
e|---------------------------------------------------|
B|---------------------------------------------------|
G|---------------------------------------------------|
D|--4-4-4-4-4-4-4-4-4-4-4-4-4-4-4-4-4-4-4-4-4-4-4-4--|
A|--2-2-2-2-2-2-2-2-2-2-2-2-2-2-2-2-2-2-2-2-2-2-2-2--|
D|---------------------------------------------------|
Gtr 2
e|--2-0---------2-0---------2-0---------2-0----------|
B|------3-2-0-------3-2-0-------3-2-0-------3-2-0----|
G|------------2-----------2-----------2-----------2--|
D|---------------------------------------------------|
A|---------------------------------------------------|
D|---------------------------------------------------|



Gtr 1
e|---------------------------------------------------|
B|---------------------------------------------------|
G|---------------------------------------------------|
D|---------------------------------------------------|
A|--2-2-2-2-2-2-2-2-2-2-2-2-5-5-5-5-5-5-5-5-5-5-5-5--|
D|--2-2-2-2-2-2-2-2-2-2-2-2-5-5-5-5-5-5-5-5-5-5-5-5--|
Gtr 2
e|----------0-2---------0-2---------0-2---------0-2--|
B|------0-2---------0-2---------0-2---------0-2------|
G|----2-----------2-----------2-----------2----------|
D|--0-----------0-----------0-----------0------------|
A|---------------------------------------------------|
D|---------------------------------------------------|



Gtr 1
e|---------------------------------------------------|
B|---------------------------------------------------|
G|---------------------------------------------------|
D|---------------------------------------------------|
A|--0-0-0-0-0-0-0-0-0-0-0-0-0-0-0-0-0-0-0-0-0-0-0-0--|
D|--0-0-0-0-0-0-0-0-0-0-0-0-0-0-0-0-0-0-0-0-0-0-0-0--|
Gtr 2
e|--2-0---------2-0---------2-0---------2-0----------|
B|------3-2-0-------3-2-0-------3-2-0-------3-2-0----|
G|------------2-----------2-----------2-----------2--|
D|---------------------------------------------------|
A|---------------------------------------------------|
D|---------------------------------------------------|



Gtr 1
e|---------------------------------------------------|
B|---------------------------------------------------|
G|---------------------------------------------------|
D|--4-4-4-4-4-4-4-4-4-4-4-4-4-4-4-4-4-4-4-4-4-4-4-4--|
A|--2-2-2-2-2-2-2-2-2-2-2-2-2-2-2-2-2-2-2-2-2-2-2-2--|
D|---------------------------------------------------|
Gtr 2
e|----------0-2---------0-2---------0-2---------0-2--|
B|------0-2---------0-2---------0-2---------0-2------|
G|----2-----------2-----------2-----------2----------|
D|--0-----------0-----------0-----------0------------|
A|---------------------------------------------------|
D|---------------------------------------------------|



Gtr 1
e|---------------------------------------------------|
B|---------------------------------------------------|
G|---------------------------------------------------|
D|--------------------------------------5-5-5-5-5-5--|
A|--2-2-2-2-2-2-2-2-2-2-2-2-5-5-5-5-5-5-5-5-5-5-5-5--|
D|--2-2-2-2-2-2-2-2-2-2-2-2-5-5-5-5-5-5-5-5-5-5-5-5--|
Gtr 2
e|--2-0---------2-0---------2-0---------2-0----------|
B|------3-2-0-------3-2-0-------3-2-0-------3-2-0----|
G|------------2-----------2-----------2-----------2--|
D|---------------------------------------------------|
A|---------------------------------------------------|
D|---------------------------------------------------|

[Repeat CHORUS]
[Repeat POST - CHORUS]


VI. BRIDGE

Gtr 1
e|-------------------------------------------------------------------------|2x
B|-------------------------------------------------------------------------|
G|-------------------------------------------------------------------------|
D|-------------------------------------------------------------------------|
A|-------------------------------------------------------------------------|
D|--0~~--5-7-8~~--7-5-4~~--0-5~--2~--4~~--5-7-8~~--7-5-4~~--0-5~--2~--4~~--|
(continued)
e|---------------------------|---------------------------|
B|---------------------------|---------------------------|
G|---------------------------|---------------------------|
D|--4-4-4-4-4-4-5-5-5-5-5-5--|--4-4-4-4-4-4-7-7-7-7-7-7--|
A|--4-4-4-4-4-4-5-5-5-5-5-5--|--4-4-4-4-4-4-7-7-7-7-7-7--|
D|--4-4-4-4-4-4-5-5-5-5-5-5--|--4-4-4-4-4-4-7-7-7-7-7-7--|
(continued)
e|---------------------------|
B|---------------------------|
G|----4-6-7~--4---4-6-7~--4--|
D|--7-----------7------------|
A|---------------------------|
D|---------------------------|

[Repeat CHORUS 2x]
[Repeat POST - CHORUS]



VII. OUTRO

Gtr 1
e|---------------|--2-0----------|--10~~--|
B|----------2-3--|------3-2-0----|--------|
G|------0-2------|------------2--|--------|
D|--0-4----------|---------------|--------|
A|---------------|---------------|--------|
D|--(repeat 8x)--|--(repeat 4x)--|--------|

e|----------0-2--|---------------|--10~~--|
B|------0-2------|---------------|--------|
G|----2----------|---------------|--------|
D|--0------------|------5-4-2-0--|--------|
A|---------------|---------------|--------|
D|--(repeat 8x)--|--(repeat 4x)--|--------|

            
            
Suggest correction
Creating personal tab
Creating personal tab
You can edit any tab online and save it as your Personal.

You can edit, replace or remove any tab part or add personal notes – all changes will be seen only by you.

Personal tabs can be accessed anytime from any device, even offline.
Learn more »
comments
print report bad tab
17 comments total. Showing first comments.
+2 reply
No_Falter08 2,414 May 18, 2007 01:48 AM

ahihihi..ang bilis mo tlga....5 starsss!!

0 reply
f1f2 774 May 18, 2007 01:54 AM

heheh.. ayoko na kapain ung ibang kanta sa cd nila, pangit :D

+1 reply
ChemyVamp 805 May 18, 2007 02:38 PM

great tab like allways

i wanna be like you :D

haha 5*

guest
You may want to rate the tab now too:
select rating
Wanna post a correction for this tab? Suggest correction