Oops, an error
Loading. Please wait.

Greener With The Scenery Bass Tab

version 3
version 3

Whole song

Interactive

288 views 1 this week
no commentswrite comment
1 2 3 4 5
poor
x 1
add to favorites
launch autoscroll
font size
0
reset
guitar tuner
Tab Pro tools
  • play this tab
  • loop segment
  • change instrument
  • show fretboard
  • metronome
Autoscroll
slow
fast
+/-
esc
set tempo
stop
Contributor
Difficulty
intermediate
                       GREENER WITH THE SCENERY (Bassline)
                             As recorded by The Used
                         (From the 2003 Album THE USED)

Words and Music by The Used
Arranged by The Used
Transcribed by Austin Mills

Gtr I (D A D G) - 'w/finger'

   Intro
    Q=160
   3/4
    Gtr I
    H.        H.        Q   Q  Q    Q  Q  Q  4x
||----------|---------|-----------|----------||
||o---------|---------|----10-----|----7----o||
||o-0-------|-0-------|-8------8S=|=5-----5-o||
||----------|---------|-----------|----------||


   Verse
    H.        H.        Q   Q  Q    Q  Q  Q    4x
||----------|---------|-----------|------------||
||o---------|---------|----10-----|----7------o||
||o-0-------|-0-------|-8------8S=|=5-----5---o||
||----------|---------|-----------|------------||


 Bridge
  H.        H.        E Q  Q.     H.
|---------|---------|-----------|-------|
|---------|---------|-----------|-------|
|-8-------|-8-------|-8-8--8----|-8-----|
|---------|---------|-----------|-------|


   H.         H.        E Q  Q.     H.
|----------|----------|-----------|-------||
|-10-------|-10-------|-----------|-------||
|----------|----------|-----------|-------||
|----------|----------|-5-5--5----|-5-----||


   Verse
    H.        Q   H      Q   Q  Q    Q  Q  Q    3x
||----------|----------|-----------|------------||
||o---------|----------|----10-----|----7------o||
||o-0-------|-5S=12----|-8------8S=|=5-----5---o||
||----------|----------|-----------|------------||


  H.        Q   H      H.        +H.
|---------|----------|---------|--------||
|---------|----------|---------|--------||
|-0-------|-5S=12----|-8-------|-(8)----||
|---------|----------|---------|--------||


 Chorus
  Q.   Q  E   Q.   Q  E   H.        H.
|-----------|-----------|---------|-------|
|-----------|-----------|---------|-------|
|-8----8--8-|-8----8--8-|-5-------|-7-----|
|-----------|-----------|---------|-------|


  Q.   Q  E   Q.   Q  E   Q.   Q  +E    H.
|-----------|-----------|-------------|-------|
|-----------|-----------|-------------|-------|
|-8----8--8-|-8----8--8-|-5----5--(5)-|-7-----|
|-----------|-----------|-------------|-------|


  Q   Q  Q    Q   E Q  E   Q.   Q  +E    H.
|-----------|------------|-------------|-------|
|----10-----|----10------|-------------|-------|
|-8------8--|-8-----8--8-|-5----5--(5)-|-7-----|
|-----------|------------|-------------|-------|


  Q  E E E E   Q  E E E E   Q  E E E E   H.
|------------|------------|------------|-------||
|------------|------------|------------|-------||
|-1--1-1-1-1-|-3--3-3-3-3-|-5--5-5-5-5-|-8\----||
|------------|------------|------------|-------||


 Verse
  H.        +H.        +H.        +H.
|---------|----------|----------|--------|
|---------|----------|----------|--------|
|---------|----------|----------|--------|
|-0-------|-(0)------|-(0)------|-(0)----|


  H.        H.        Q   Q  Q    Q  Q  Q
|---------|---------|-----------|----------|
|---------|---------|----10-----|----7-----|
|-0-------|-0-------|-8------8S=|=5-----5--|
|---------|---------|-----------|----------|


    H.        Q   H      Q   Q  Q    Q  Q  Q
||----------|----------|-----------|------------||
||o---------|----------|----10-----|----7------o||
||o-0-------|-5S=12----|-8------8S=|=5-----5---o||
||----------|----------|-----------|------------||


  H.        Q   Q   Q     Q  Q   Q     Q   Q  Q
|---------|------------|------------|------------|
|---------|------------|-10S=9------|-12--10--9--|
|-0-------|-5S=12--12--|--------12--|------------|
|---------|------------|------------|------------|


   H     +E   E    H.        Q   Q  Q    Q  Q  Q
|---------------|----------|-----------|----------|
|-14----(14)-12-|-10-------|----10-----|----7-----|
|---------------|----------|-8------8S=|=5-----5--|
|---------------|----------|-----------|----------|


  H.        +H.        H.        +H.
|---------|----------|---------|--------||
|---------|----------|---------|--------||
|-3-------|-(3)------|-0-------|-(0)----||
|---------|----------|---------|--------||


 Chorus
  Q.   Q  E   Q.   Q  E   H.        H.
|-----------|-----------|---------|-------|
|-----------|-----------|---------|-------|
|-8----8--8-|-8----8--8-|-5-------|-7-----|
|-----------|-----------|---------|-------|


  Q.   Q  E   Q.   Q  E   Q.   Q  +E    H.
|-----------|-----------|-------------|-------|
|-----------|-----------|-------------|-------|
|-8----8--8-|-8----8--8-|-5----5--(5)-|-7-----|
|-----------|-----------|-------------|-------|


  Q   Q  Q    Q   E Q  E   Q.   Q  +E    H.
|-----------|------------|-------------|-------|
|----10-----|----10------|-------------|-------|
|-8------8--|-8-----8--8-|-5----5--(5)-|-7-----|
|-----------|------------|-------------|-------|


  Q  E E E E   Q  E E E E   Q  E E E E   H.
|------------|------------|------------|-------||
|------------|------------|------------|-------||
|-1--1-1-1-1-|-3--3-3-3-3-|-5--5-5-5-5-|-8\----||
|------------|------------|------------|-------||


   Interlude
    H.        +H.        Q  Q  Q    Q  Q  Q    4x
||----------|----------|----------|------------||
||o---------|----------|----------|-----------o||
||o-0-------|-(0)------|----3-----|----0------o||
||----------|----------|-3-----3--|-0-----0----||


  H.        +H.        Q  Q  Q    Q  Q  Q
|---------|----------|----------|----------||
|---------|----------|-7--5--3--|-2--0-----||
|-0-------|-(0)------|----------|-------3--||
|---------|----------|----------|----------||


 Verse
  >
  H.        Wx11
|---------|---------|
|---------|---------|
|-0-------|---------|
|---------|---------|


    H.        +H.        +H.        +H     +E  E
||----------|----------|----------|----------------||
||o---------|----------|----------|---------------o||
||o-0-------|-(0)------|-(0)------|-(0)----(0)-0--o||
||----------|----------|----------|----------------||


  H.        +Q   E E Q    H.        +Q   E E Q
|---------|-------------|---------|-------------|
|---------|-------------|---------|-------------|
|-0-------|-(0)--8---8--|-5-------|-(5)--3---3--|
|---------|-------------|---------|-------------|


  H.        +Q   E E Q    H.        W
|---------|-------------|---------|------||
|---------|-------------|---------|------||
|-0-------|-(0)--8---8--|-5-------|------||
|---------|-------------|---------|------||


 Chorus
  Q.   Q  E   Q.   Q  E   H.        H.
|-----------|-----------|---------|-------|
|-----------|-----------|---------|-------|
|-8----8--8-|-8----8--8-|-5-------|-7-----|
|-----------|-----------|---------|-------|


    Q.   Q  E   Q.   Q  E   Q.   Q  +E    H.
||------------|-----------|-------------|--------||
||o-----------|-----------|-------------|-------o||
||o-8----8--8-|-8----8--8-|-5----5--(5)-|-7-----o||
||------------|-----------|-------------|--------||


  Q  E E E E   Q  E E E E   Q  E E E E   Q  E E E E
|------------|------------|------------|------------|
|------------|------------|------------|------------|
|-1--1-1-1-1-|-1--1-1-1-1-|-1--1-1-1-1-|-1--1-1-1-1-|
|------------|------------|------------|------------|


    E E E  Q  E   E E E  Q  E   E E E Q  E   E E E Q  E   3x
||--------------|-------------|------------|--------------||
||o-------10----|-------10----|-------7----|-------9-----o||
||o-8-8-8-----8-|-8-8-8-----8-|-5-5-5----5-|-7-7-7----7--o||
||--------------|-------------|------------|--------------||


  Q  E E E E   Q  E E E E   Q  E E E E   Q  H
|------------|------------|------------|---------*|
|------------|------------|------------|---------*|
|-1--1-1-1-0-|-1--1-1-1-0-|-1--1-1-1-0-|-1-------*|
|------------|------------|------------|---------*|
comments
We did not receive enough feedback on this tab! Please rate:
print report bad tab
1 2 3 4 5
I want to post or [tab]
guest
You may want to rate the tab now too:
select rating
Please do not post tabs as comments. Select "correction" instead!