Oops, an error
Loading. Please wait.

Hands And Faces tab

version 3
version 3

Whole song

2,020 views 1 this week
no commentswrite comment
1 2 3 4 5
x 4
add to favorites
×
Save as Personal and add changes to this tab that will be seen only by you. Learn more ›
×
You can save this tab as Personal to edit and correct it or add notes. All changes will be seen only by you. Learn more »
launch autoscroll
font size
0
reset
how to read this tab
guitar tuner
edit
Autoscroll
slow
fast
+/-
esc
set tempo
stop
----------------------------------------------------------------------------
                             Hands and Faces
                                The Used
----------------------------------------------------------------------------

Different. That is one word that can described this song. I’ve never seen this side of
The Used but this is what bands do. They experiment and try to advance their writing
abilities. I like it though, and it is very catchy and fun to play. This tab is mainly
non-guitar-based parts so if you want to play it Exactly like The Used, then this isn’t for
you. Enjoy!

Username: dkm817 (same on X box live)
Youtube Cover: http://www.youtube.com/watch?v=1THhjeZb4U4
Email: guitardrums@rockfan.com

Guitar 1 Rhythmic (D A D G B E)
Guitar 2 Lead     (D A D G B E)

Tab Guide...
==================================================================
(end of measures)

==================================================================
==================================================================
(end of parts)

==================================================================
==================================================================
==================================================================
(end of song)

(If there is a “continued” it is because the numbers could not
fit on 1 line.)


Intro

==================================================================
==================================================================


Verse 1

Guitar 1 (Bass tone)
E-----------------------------------------------------------------|
B-----------------------------------------------------------------|
G-----------------------------------------------------------------|
D-----------------------------------------------------------------|
A-----------------------------7~~---------------------------------|
D-2~~~~-----2-5~~~~---2~~-5~~-----10~~~-10~-10-10~~~~-9---9~~-9~~-|

Guitar 2 (Clean)
E-----7~~~----7~~~----7~~~----7~~~----12~~----12~~----11~~----11~~-|
B-----8~~~----8~~~----8~~~----8~~~----13~~----13~~----12~~----12~~-|
G-----9~~~----9~~~----9~~~----9~~~----12~~----12~~----11~~----11~~-|
D-----9~~~----9~~~----9~~~----9~~~----14~~----14~~----13~~----13~~-|
A------------------------------------------------------------------|
D------------------------------------------------------------------|

==================================================================

Guitar 1
E-----------------------------------------------------------------|
B-----------------------------------------------------------------|
G-----------------------------------------------------------------|
D-----------------------------------------------------------------|
A-----------------------------------------------------------------|
D-7~~~~-7~~-7-9~~~~---9---9~~-9~~-7~~~~-7~~-7-9~~~~---9---9-7-5-4-|

Guitar 2
E-----12~~----12~~----14~~----14~~----12~~----12~~----14~----------|
B-----13~~----13~~----16~~----16~~----13~~----13~~----16~----------|
G-----12~~----12~~----16~~----16~~----12~~----12~~----16~-8~\~~~~~-|
D-----14~~----14~~----16~~----16~~----14~~----14~~----16~----------|
A------------------------------------------------------------------|
D------------------------------------------------------------------|

==================================================================

Guitar 1
E-----------------------------------------------------------------|
B-----------------------------------------------------------------|
G-----------------------------------------------------------------|
D-----------------------------------------------------------------|
A-----------------------------------------------------------------|
D-2~~~~-2~~-2-5~~~~---2~~-5~~-2~~-10~~~-10~-10-10~~~~-9---9~~-9~~-|

Guitar 2
E-----7~~~----7~~~----7~~~----7~~~----12~~----11~~----11~~----11~~-|
B-----8~~~----8~~~----8~~~----8~~~----13~~----12~~----12~~----12~~-|
G-/~~-9~~~----9~~~----9~~~----9~~~----12~~----13~~----11~~----11~~-|
D-----9~~~----9~~~----9~~~----9~~~----14~~----14~~----13~~----13~~-|
A------------------------------------------------------------------|
D------------------------------------------------------------------|

==================================================================

Guitar 1
E-----------------------------------------------------------------|
B-----------------------------------------------------------------|
G-----------------------------------------------------------------|
D-------------------------------------------------x---x---x-x-x-x-|
A-------------------------------------------------x---x---x-x-x-x-|
D-7~~~~-7~~-7-9~~~~---9---9~~-9~~-7~~~~-7~~-7-9~~-x---x---x-x-x-x-|

Guitar 2
E-----12~~----12~~----14~~----14~~----12~~----12~~----14~~----16~-|
B-----13~~----13~~----16~~----16~~----13~~----13~~----16~~----16~-|
G-----12~~----12~~----16~~----16~~----12~~----12~~----16~~----16~-|
D-----14~~----14~~----16~~----16~~----14~~----14~~----16~~----16~-|
A-----------------------------------------------------------------|
D-----------------------------------------------------------------|

==================================================================
==================================================================


Chorus

Guitar 1
E-----------------------------------------------------------------|
B-----------------------------------------------------------------|
G-----------------------------------------------------------------|
D-2-2-2-2-2-2-5-5-5-5-5-5-5-5-5-5-0-0-0-0-0-0-7-7-7-7-7-7-7-7-7-7-|
A-2-2-2-2-2-2-5-5-5-5-5-5-5-5-5-5-0-0-0-0-0-0-7-7-7-7-7-7-7-7-7-7-|
D-2-2-2-2-2-2-5-5-5-5-5-5-5-5-5-5-0-0-0-0-0-0-7-7-7-7-7-7-7-7-7-7-|

Guitar 2
E-----------------------------------------------------------------|
B-----------------------------------------------------------------|
G-9~~-9-9~~~~-------7-7~~~~~~~~~~-7~~-7-7~~~~---------------------|
D-------------7-9~~---------------------------9-7~~-7-9~~~~~~~~~~-|
A-----------------------------------------------------------------|
D-----------------------------------------------------------------|

==================================================================

Guitar 1
E-----------------------------------------------------------------|
B-----------------------------------------------------------------|
G-----------------------------------------------------------------|
D-2-2-2-2-2-2-5-5-5-5-5-5-5-5-5-5-0-0-0-0-0-0-0-0-0~~-0~~-x-x-x-x-|
A-2-2-2-2-2-2-5-5-5-5-5-5-5-5-5-5-0-0-0-0-0-0-0-0-0~~-0~~-x-x-x-x-|
D-2-2-2-2-2-2-5-5-5-5-5-5-5-5-5-5-0-0-0-0-0-0-0-0-0~~-0~~-x-x-x-x-|

Guitar 2
E-----------------------------------------------------------------|
B-----------------------------------------------------------------|
G-9~~-9-9~~~~-------7-7~~~~~~~~~~-7~~-7-7~~~~~~~~-7~~-7~~---------|
D-------------7-9~~---------------------------------------x-x-x-x-|
A---------------------------------------------------------x-x-x-x-|
D---------------------------------------------------------x-x-x-x-|

==================================================================

Guitar 1
E-----------------------------------------------------------------|
B-----------------------------------------------------------------|
G---------------------------------5~~-5-5~~-5-4~~~~-4-4~~-4-4-4-4-|
D-2-2-2-2-2-2-5-5-5-5-5-5-5-5-5-5-5~~-5-5~~-5-4~~~~-4-4~~-4-4-4-4-|
A-2-2-2-2-2-2-5-5-5-5-5-5-5-5-5-5-3~~-3-3~~-3-2~~~~-2-2~~-2-2-2-2-|
D-2-2-2-2-2-2-5-5-5-5-5-5-5-5-5-5---------------------------------|

Guitar 2
E-----------------------------------------------------------------|
B-----------------------------------------------------------------|
G-9~~-9-9~~~~---------7~~~~~~~~~~-5~~-5-5~~-5-4~~~~-4-4~~-4-4-4-4-|
D-------------5-5~~-9---------------------------------------------|
A-----------------------------------------------------------------|
D-----------------------------------------------------------------|

==================================================================

Guitar 1
E-----------------------------------------------------------------|
B-----------------------------------------------------------------|
G-----------------------------------------------------------------|
D-2-2-2-2-2-2-5-5-5-5-5-5-5-5-5-5-0-0-0-0-0-0-0-0-0~~-0~~-x-x-x-x-|
A-2-2-2-2-2-2-5-5-5-5-5-5-5-5-5-5-0-0-0-0-0-0-0-0-0~~-0~~-x-x-x-x-|
D-2-2-2-2-2-2-5-5-5-5-5-5-5-5-5-5-0-0-0-0-0-0-0-0-0~~-0~~-x-x-x-x-|

Guitar 2
E-----------------------------------------------------------------|
B-----------------------------------------------------------------|
G-9~~-9-9~~~~-------7-7~~~~~~~~~~-7~~-7-7~~~~~~~~-7~~-7~~---------|
D-------------7-9~~---------------------------------------x-x-x-x-|
A---------------------------------------------------------x-x-x-x-|
D---------------------------------------------------------x-x-x-x-|

==================================================================
==================================================================


Bridge 1

Guitar 1 & 2
E---------------------------------|
B---------------------------------|
G-5~~~~~~~~~~~~~~~~~~~~~~~~~~~~~~-
D-5~~~~~~~~~~~~~~~~~~~~~~~~~~~~~~-
A-3~~~~~~~~~~~~~~~~~~~~~~~~~~~~~~-
D---------------------------------

==================================================================
==================================================================


Verse 2

Guitar 2 (Clean)
E-----7~~~----7~~~----7~~~----7~~~----12~~----12~~----11~~----11~~-|
B-----8~~~----8~~~----8~~~----8~~~----13~~----13~~----12~~----12~~-|
G-----9~~~----9~~~----9~~~----9~~~----12~~----12~~----11~~----11~~-|
D-----9~~~----9~~~----9~~~----9~~~----14~~----14~~----13~~----13~~-|
A------------------------------------------------------------------|
D------------------------------------------------------------------|

==================================================================

Guitar 1
E-----------------------------------------------------------------|
B-----------------------------------------------------------------|
G-----------------------------------------------------------------|
D-----------------------------------------------------------------|
A-----------------------------------------------------------------|
D---------------------------------------------------------9-7-5-4-|

Guitar 2
E-----12~~----12~~----14~~----14~~----12~~----12~~----14~----------|
B-----13~~----13~~----16~~----16~~----13~~----13~~----16~----------|
G-----12~~----12~~----16~~----16~~----12~~----12~~----16~-8~\~~~~~-|
D-----14~~----14~~----16~~----16~~----14~~----14~~----16~----------|
A------------------------------------------------------------------|
D------------------------------------------------------------------|

==================================================================
==================================================================


Verse 3

Guitar 1
E-----------------------------------------------------------------|
B-----------------------------------------------------------------|
G-----------------------------------------------------------------|
D-2~~~~-2~~-2-5~~~~---2~~-5~~-2~~-10~~~-10~-10-10~~~~-9---9~~-9~~-|
A-2~~~~-2~~-2-5~~~~---2~~-5~~-2~~-10~~~-10~-10-10~~~~-9---9~~-9~~-|
D-2~~~~-2~~-2-5~~~~---2~~-5~~-2~~-10~~~-10~-10-10~~~~-9---9~~-9~~-|

Guitar 2
E-----7~~~----7~~~----7~~~----7~~~----12~~----11~~----11~~----11~~-|
B-----8~~~----8~~~----8~~~----8~~~----13~~----12~~----12~~----12~~-|
G-/~~-9~~~----9~~~----9~~~----9~~~----12~~----13~~----11~~----11~~-|
D-----9~~~----9~~~----9~~~----9~~~----14~~----14~~----13~~----13~~-|
A------------------------------------------------------------------|
D------------------------------------------------------------------|

==================================================================

Guitar 1
E-----------------------------------------------------------------|
B-----------------------------------------------------------------|
G-----------------------------------------------------------------|
D-7~~~~-7~~-7-9~~~~---9---9~~-9~~-7~~~~-7~~-7-9~~~~---9---9-7-5-4-|
A-7~~~~-7~~-7-9~~~~---9---9~~-9~~-7~~~~-7~~-7-9~~~~---9---9-7-5-4-|
D-7~~~~-7~~-7-9~~~~---9---9~~-9~~-7~~~~-7~~-7-9~~~~---9---9-7-5-4-|

Guitar 2
E-----12~~----12~~----14~~----14~~----12~~----12~~----14~~----16~-|
B-----13~~----13~~----16~~----16~~----13~~----13~~----16~~----16~-|
G-----12~~----12~~----16~~----16~~----12~~----12~~----16~~----16~-|
D-----14~~----14~~----16~~----16~~----14~~----14~~----16~~----16~-|
A-----------------------------------------------------------------|
D-----------------------------------------------------------------|

==================================================================
==================================================================


Chorus

Guitar 1
E-----------------------------------------------------------------|
B-----------------------------------------------------------------|
G-----------------------------------------------------------------|
D-2-2-2-2-2-2-5-5-5-5-5-5-5-5-5-5-0-0-0-0-0-0-7-7-7-7-7-7-7-7-7-7-|
A-2-2-2-2-2-2-5-5-5-5-5-5-5-5-5-5-0-0-0-0-0-0-7-7-7-7-7-7-7-7-7-7-|
D-2-2-2-2-2-2-5-5-5-5-5-5-5-5-5-5-0-0-0-0-0-0-7-7-7-7-7-7-7-7-7-7-|

Guitar 2
E-----------------------------------------------------------------|
B-----------------------------------------------------------------|
G-9~~-9-9~~~~-------7-7~~~~~~~~~~-7~~-7-7~~~~---------------------|
D-------------7-9~~---------------------------9-7~~-7-9~~~~~~~~~~-|
A-----------------------------------------------------------------|
D-----------------------------------------------------------------|

==================================================================

Guitar 1
E-----------------------------------------------------------------|
B-----------------------------------------------------------------|
G-----------------------------------------------------------------|
D-2-2-2-2-2-2-5-5-5-5-5-5-5-5-5-5-0-0-0-0-0-0-0-0-0~~-0~~-x-x-x-x-|
A-2-2-2-2-2-2-5-5-5-5-5-5-5-5-5-5-0-0-0-0-0-0-0-0-0~~-0~~-x-x-x-x-|
D-2-2-2-2-2-2-5-5-5-5-5-5-5-5-5-5-0-0-0-0-0-0-0-0-0~~-0~~-x-x-x-x-|

Guitar 2
E-----------------------------------------------------------------|
B-----------------------------------------------------------------|
G-9~~-9-9~~~~-------7-7~~~~~~~~~~-7~~-7-7~~~~~~~~-7~~-7~~---------|
D-------------7-9~~---------------------------------------x-x-x-x-|
A---------------------------------------------------------x-x-x-x-|
D---------------------------------------------------------x-x-x-x-|

==================================================================

Guitar 1
E-----------------------------------------------------------------|
B-----------------------------------------------------------------|
G---------------------------------5~~-5-5~~-5-4~~~~-4-4~~-4-4-4-4-|
D-2-2-2-2-2-2-5-5-5-5-5-5-5-5-5-5-5~~-5-5~~-5-4~~~~-4-4~~-4-4-4-4-|
A-2-2-2-2-2-2-5-5-5-5-5-5-5-5-5-5-3~~-3-3~~-3-2~~~~-2-2~~-2-2-2-2-|
D-2-2-2-2-2-2-5-5-5-5-5-5-5-5-5-5---------------------------------|

Guitar 2
E-----------------------------------------------------------------|
B-----------------------------------------------------------------|
G-9~~-9-9~~~~---------7~~~~~~~~~~-5~~-5-5~~-5-4~~~~-4-4~~-4-4-4-4-|
D-------------5-5~~-9---------------------------------------------|
A-----------------------------------------------------------------|
D-----------------------------------------------------------------|

==================================================================

Guitar 1
E-----------------------------------------------------------------|
B-----------------------------------------------------------------|
G-----------------------------------------------------------------|
D-2-2-2-2-2-2-5-5-5-5-5-5-5-5-5-5-0-0-0-0-0-0-0-0-0~~-0~~-x-x-x-x-|
A-2-2-2-2-2-2-5-5-5-5-5-5-5-5-5-5-0-0-0-0-0-0-0-0-0~~-0~~-x-x-x-x-|
D-2-2-2-2-2-2-5-5-5-5-5-5-5-5-5-5-0-0-0-0-0-0-0-0-0~~-0~~-x-x-x-x-|

Guitar 2
E-----------------------------------------------------------------|
B-----------------------------------------------------------------|
G-9~~-9-9~~~~-------7-7~~~~~~~~~~-7~~-7-7~~~~~~~~-7~~-7~~---------|
D-------------7-9~~---------------------------------------x-x-x-x-|
A---------------------------------------------------------x-x-x-x-|
D---------------------------------------------------------x-x-x-x-|

==================================================================
==================================================================


Bridge 2

Guitar 1 & 2
E-----------------------------------------------------------------|
B-----------------------------------------------------------------|
G-5~~~~~~~~~~~~~~~~~~~~~~~~~~~~~~~~~~~~~~~~~~~~~~~~~~~~~~~~~~~~~~-
D-5~~~~~~~~~~~~~~~~~~~~~~~~~~~~~~~~~~~~~~~~~~~~~~~~~~~~~~~~~~~~~~-
A-3~~~~~~~~~~~~~~~~~~~~~~~~~~~~~~~~~~~~~~~~~~~~~~~~~~~~~~~~~~~~~~-
D-----------------------------------------------------------------

==================================================================
==================================================================


Interlude 1

(x3)

Guitar 1
E-------------------12~~~----~~~~~----~~~~~----~~~~~----~~~~~-----|
B-----------------15~~~~~----~~~~~----~~~~~----~~~~~----~~~~~-----|
G-----------------------------------------------------------------|
D-----------------------------------------------------------------|
A-----------------------------------------------------------------|
D-----------------------------------------------------------------|

Guitar 2
E-----------------------------12~~~~~~~~~~~~~~~~~-----------------|
B-----------------15~~~~~~~~~~~~~~~~~~~~~~~~~~~~~-----------------|
G-------------------------------------------------14~~~~~~~~~-12--|
D-----------------------------------------------------------------|
A-----------------------------------------------------------------|
D-----------------------------------------------------------------|

==================================================================

Guitar 2
E-----------------------------12~~~~~~~~~~~~~~~~~-----------------|
B-----------------15~~~~~~~~~~~~~~~~~~~~~~~~~~~~~-----------------|
G-------------------------------------------------12~~~~~~~~~-14--|
D-14~~~~~~~~~~~~~-------------------------------------------------|
A-----------------------------------------------------------------|
D-----------------------------------------------------------------|

==================================================================

Guitar 1
E-------------------12~~~----~~~~~----~~~~~----~~~~~----~~~~~-----|
B-----------------15~~~~~----~~~~~----~~~~~----~~~~~----~~~~~-----|
G-----------------------------------------------------------------|
D-----------------------------------------------------------------|
A-----------------------------------------------------------------|
D-----------------------------------------------------------------|

Guitar 2
E-----------------------------12~~~~~~~~~~~~~~~~~-----------------|
B-----------------15~~~~~~~~~~~~~~~~~~~~~~~~~~~~~-----------------|
G-------------------------------------------------14~~~~~~~~~-12--|
D-14~~~~~~~~~~~~~-------------------------------------------------|
A-----------------------------------------------------------------|
D-----------------------------------------------------------------|

==================================================================

Guitar 2
E-----------------------------12~~~~~~~~~~~~~~~~~-----------------|
B-----------------15~~~~~~~~~~~~~~~~~~~~~~~~~~~~~-12~~~~~~~~~-13--|
G-----------------------------------------------------------------|
D-14~~~~~~~~~~~~~-------------------------------------------------|
A-----------------------------------------------------------------|
D-----------------------------------------------------------------|

==================================================================
==================================================================


Interlude 2

Guitar 1
E-------------------12~~~----~~~~~----~~~~~----~~~~~----~~~~~-----|
B-----------------15~~~~~----~~~~~----~~~~~----~~~~~----~~~~~-----|
G-----------------------------------------------------------------|
D-----------------------------------------------------------------|
A-----------------------------------------------------------------|
D-----------------------------------------------------------------|

Guitar 2
E------------------------------------------------------------------|
B-----------------12~~~~~~~~~-13------------------12~~~~~~~~~-15~~-|
G------------------------------------------------------------------|
D-14~~~~~~~~~~~~~-----------------14~~~~~~~~~~~~~~-----------------|
A------------------------------------------------------------------|
D------------------------------------------------------------------|

==================================================================

Guitar 2
E-------------------------------------------------------------12~-|
B-~~~~~~~~~~~~~~~-12~~~~~~~~~-15------------------15~~~~~~~~~-----|
G-----------------------------------------------------------------|
D---------------------------------14~~~~~~~~~~~~~~----------------|
A-----------------------------------------------------------------|
D-----------------------------------------------------------------|

==================================================================
==================================================================


Bridge 3

Guitar 1
E-----------------------------------------------------------------|
B-----------------------------------------------------------------|
G-----------------------------------------------------------------|
D-----------------------------------------------------------------|
A-----------------------------------------------------------------|
D-----------------------------------------------------9---9-7-5-4-|

==================================================================
==================================================================

Chorus

Guitar 1
E-----------------------------------------------------------------|
B-----------------------------------------------------------------|
G-----------------------------------------------------------------|
D-2-2-2-2-2-2-5-5-5-5-5-5-5-5-5-5-0-0-0-0-0-0-7-7-7-7-7-7-7-7-7-7-|
A-2-2-2-2-2-2-5-5-5-5-5-5-5-5-5-5-0-0-0-0-0-0-7-7-7-7-7-7-7-7-7-7-|
D-2-2-2-2-2-2-5-5-5-5-5-5-5-5-5-5-0-0-0-0-0-0-7-7-7-7-7-7-7-7-7-7-|

Guitar 2
E-----------------------------------------------------------------|
B-----------------------------------------------------------------|
G-9~~-9-9~~~~-------7-7~~~~~~~~~~-7~~-7-7~~~~---------------------|
D-------------7-9~~---------------------------9-7~~-7-9~~~~~~~~~~-|
A-----------------------------------------------------------------|
D-----------------------------------------------------------------|

==================================================================

Guitar 1
E-----------------------------------------------------------------|
B-----------------------------------------------------------------|
G-----------------------------------------------------------------|
D-2-2-2-2-2-2-5-5-5-5-5-5-5-5-5-5-0-0-0-0-0-0-0-0-0~~-0~~-x-x-x-x-|
A-2-2-2-2-2-2-5-5-5-5-5-5-5-5-5-5-0-0-0-0-0-0-0-0-0~~-0~~-x-x-x-x-|
D-2-2-2-2-2-2-5-5-5-5-5-5-5-5-5-5-0-0-0-0-0-0-0-0-0~~-0~~-x-x-x-x-|

Guitar 2
E-----------------------------------------------------------------|
B-----------------------------------------------------------------|
G-9~~-9-9~~~~-------7-7~~~~~~~~~~-7~~-7-7~~~~~~~~-7~~-7~~---------|
D-------------7-9~~---------------------------------------x-x-x-x-|
A---------------------------------------------------------x-x-x-x-|
D---------------------------------------------------------x-x-x-x-|

==================================================================

Guitar 1
E-----------------------------------------------------------------|
B-----------------------------------------------------------------|
G---------------------------------5~~-5-5~~-5-4~~~~-4-4~~-4-4-4-4-|
D-2-2-2-2-2-2-5-5-5-5-5-5-5-5-5-5-5~~-5-5~~-5-4~~~~-4-4~~-4-4-4-4-|
A-2-2-2-2-2-2-5-5-5-5-5-5-5-5-5-5-3~~-3-3~~-3-2~~~~-2-2~~-2-2-2-2-|
D-2-2-2-2-2-2-5-5-5-5-5-5-5-5-5-5---------------------------------|

Guitar 2
E-----------------------------------------------------------------|
B-----------------------------------------------------------------|
G-9~~-9-9~~~~---------7~~~~~~~~~~-5~~-5-5~~-5-4~~~~-4-4~~-4-4-4-4-|
D-------------5-5~~-9---------------------------------------------|
A-----------------------------------------------------------------|
D-----------------------------------------------------------------|

==================================================================

Guitar 1
E-----------------------------------------------------------------|
B-----------------------------------------------------------------|
G-----------------------------------------------------------------|
D-2-2-2-2-2-2-5-5-5-5-5-5-5-5-5-5-0-0-0-0-0-0-0-0-0~~-0~~-x-x-x-x-|
A-2-2-2-2-2-2-5-5-5-5-5-5-5-5-5-5-0-0-0-0-0-0-0-0-0~~-0~~-x-x-x-x-|
D-2-2-2-2-2-2-5-5-5-5-5-5-5-5-5-5-0-0-0-0-0-0-0-0-0~~-0~~-x-x-x-x-|

Guitar 2
E-----------------------------------------------------------------|
B-----------------------------------------------------------------|
G-9~~-9-9~~~~-------7-7~~~~~~~~~~-7~~-7-7~~~~~~~~-7~~-7~~---------|
D-------------7-9~~---------------------------------------x-x-x-x-|
A---------------------------------------------------------x-x-x-x-|
D---------------------------------------------------------x-x-x-x-|

==================================================================
==================================================================


Bridge 2

Guitar 1 & 2
E-----------------------------------------------------------------|
B-----------------------------------------------------------------|
G-5~~~~~~~~~~~~~~~~~~~~~~~~~~~~~~~~~~~~~~~~~~~~~~~~~~~~~~~~~~~~~~-
D-5~~~~~~~~~~~~~~~~~~~~~~~~~~~~~~~~~~~~~~~~~~~~~~~~~~~~~~~~~~~~~~-
A-3~~~~~~~~~~~~~~~~~~~~~~~~~~~~~~~~~~~~~~~~~~~~~~~~~~~~~~~~~~~~~~-
D-----------------------------------------------------------------

==================================================================
==================================================================

Guitar 1
E-----------------------------------------------------------------|
B-----------------------------------------------------------------|
G-----------------------------------------------------------------|
D-2~~~~-2~~-2-5~~~~---2~~-5~~-2~~-10~~~-10~-10-10~~~~-9---9~~-9~~-|
A-2~~~~-2~~-2-5~~~~---2~~-5~~-2~~-10~~~-10~-10-10~~~~-9---9~~-9~~-|
D-2~~~~-2~~-2-5~~~~---2~~-5~~-2~~-10~~~-10~-10-10~~~~-9---9~~-9~~-|

Guitar 2
E------------------------------------------------------------------------|
B------------------------------------------------------------------------|
G-9-9-9-9-9-9-12-12-12-12-12-12-12-12-12-7-7-7-7-7-7-7-7-7-7-9-9-9-9-9-9-|
D-x-x-x-x-x-x-x--x--x--x--x--x--x--x--x--x-x-x-x-x-x-x-x-x-x-x-x-x-x-x-x-|
A-7-7-7-7-7-7-10-10-10-10-10-10-10-10-10-5-5-5-5-5-5-5-5-5-5-7-7-7-7-7-7-|
D------------------------------------------------------------------------|

==================================================================

Guitar 1
E-----------------------------------------------------------------|
B-----------------------------------------------------------------|
G-----------------------------------------------------------------|
D-7~~~~-7~~-7-9~~~~---9---9~~-9~~-7~~~~-7~~-7-9~~~~---9---9-7-5-4-|
A-7~~~~-7~~-7-9~~~~---9---9~~-9~~-7~~~~-7~~-7-9~~~~---9---9-7-5-4-|
D-7~~~~-7~~-7-9~~~~---9---9~~-9~~-7~~~~-7~~-7-9~~~~---9---9-7-5-4-|

Guitar 2
E-----------------------------------------------------------------------|
B---------------------------------8-8-8---------------10-10-10-10-10-10-|
G-9-9-9-9-9-9-9-9-9-9-9-9-7-7-7-7-x-x-x-7-7-7-7-7-7-7-x--x--x--x--x--x--|
D-x-x-x-x-x-x-x-x-x-x-x-x-x-x-x-x-5-5-5-x-x-x-x-x-x-x-7--7--7--7--7--7--|
A-7-7-7-7-7-7-7-7-7-7-7-7-5-5-5-5-------5-5-5-5-5-5-5-------------------|
D-----------------------------------------------------------------------|

==================================================================

Guitar 1
E-----------------------------------------------------------------|
B-----------------------------------------------------------------|
G-----------------------------------------------------------------|
D-2~~~\-----------------------------------------------------------|
A-2~~~\-----------------------------------------------------------|
D-2~~~\-----------------------------------------------------------|

Guitar 2
E-----------------------------------------------------------------|
B-----------------------------------------------------------------|
G-9~~~\-----------------------------------------------------------|
D-x---------------------------------------------------------------|
A-7~~~\-----------------------------------------------------------|
D-----------------------------------------------------------------|

==================================================================
==================================================================
==================================================================


Tab Legend
h - hammer-on
p - pull-off
/ - slide up
\ - slide down
ps/- pickslide up
ps\- pickslide down
~ - let ring
pm.- palm mute
b - bend
r - return from bend
* - harmonic
x - dead note
^ - Whammy bar
^\ - Whammy bar (hold down)

That’s it! Hopefully this guitar tab has helped you play this unique song, and if you
have any problems, be sure to check out my cover for visuals. Thanks, oh and one last
thing... ROCK OUT!!!!
Suggest correction
Creating personal tab
Creating personal tab
You can edit any tab online and save it as your Personal.

You can edit, replace or remove any tab part or add personal notes – all changes will be seen only by you.

Personal tabs can be accessed anytime from any device, even offline.
Learn more »
comments
print report bad tab
guest
You may want to rate the tab now too:
select rating
Wanna post a correction for this tab? Suggest correction