Oops, an error
Loading. Please wait.

Handsome Awkward Bass Tab

version 1
version 1

Whole song

Interactive

992 views 1 this week
no commentswrite comment
1 2 3 4 5
please rate
add to favorites
launch autoscroll
font size
0
reset
guitar tuner
Tab Pro tools
  • play this tab
  • loop segment
  • change instrument
  • show fretboard
  • metronome
×
Best way to learn
"Handsome Awkward"
Autoscroll
slow
fast
+/-
esc
set tempo
stop
Contributor
Difficulty
intermediate
The Used
Handsome Awkward

I've Tabbed out what i can but these are the only parts it includes on my version of the 
as the full version of the song hasn't been released yet. I've just got the version 
of The Berth DVD. PLease comment and rate fairly

Drop D Tunning

Intro
G|------------------------------------------------------------||
D|------------------------------------------------------------||
A|------------5------------------5----------------------------||
D|-XXXX-0h3h5---0-0-0-0-0-0h3h5---0-0-0-0-0-0h3h5-3~3-3-3-5~5-||

Verse
G|--------------------------------------------------------||
D|--------------------------------------------------------||
A|--------5------------------5----------------------------||
D|--0h3h5---0-0-0-0-0-0h3h5---0-0-0-0-0-0h3h5-3~3-3-3-5~5-||

Pre-Chorus
G|-----------||
D|-----------||
A|-----------||
D|-0~/12-XXXX||

Chorus
G|----------------------------------------------||
D|--------------------------h3h5----------------||
A|-------------------3~333h5-----0~0000---------||
D|-0~000000-5~555555--------------------3~33333-||

Outro
G|----------||
D|----------||
A|----------||
D|-6p5p3-0~-||
comments
We did not receive enough feedback on this tab! Please rate:
print report bad tab
1 2 3 4 5
I want to post or [tab]
guest
You may want to rate the tab now too:
select rating
Please do not post tabs as comments. Select "correction" instead!