Oops, an error
Loading. Please wait.

Handsome Awkward tab

version 2
version 2

Whole song

Interactive

1,391 views 1 this week
2 commentsread comments
1 2 3 4 5
x 3
add to favorites
×
Save as Personal and add changes to this tab that will be seen only by you. Learn more ›
×
You can save this tab as Personal to edit and correct it or add notes. All changes will be seen only by you. Learn more »
launch autoscroll
font size
0
reset
how to read this tab
guitar tuner
edit
Autoscroll
slow
fast
+/-
esc
set tempo
stop
-------------------------------------------------------------------------------
                             Handsome Awkward - The Used
-------------------------------------------------------------------------------
Tabbed by: Jamie Cassidy
Email: Jamiec90@googlemail.com

Tuning: DADGBE

I think this is right but if there's any errors let me know ;]

Intro
e|---------------------------------------------------------------------------|
B|---------------------------------------------------------------------------|
G|---------------------------------------------------------------------------|
D|----------------------0-------------0-------------0-------------3-333-555--|
A|----------------------------------------------------------------3-333-555--|
D|-0-3-5---0x0x0x0x0x-0-3-5---0x0x0x0x0x-0-3-5---0x0x0x0x0x-0-3-5-3-333-555--|
x1 Light Overdrive then another x1 Heavy

Verse
D|---------------------------------------------------------------------------------|
e|---------------------------------------------------------------------------------|
B|---------------------------------------------------------------------------------|
G|---------------------------------------------------------------------------------|
D|------------------0-----------------0-------------------3-3x3x3x-5x5x5x-------0--|
A|-0x0x0x0x0x---------0x0x0x0x0x---------0x0x0x0x0x-------3-3x3x3x-5x5x5x-------0--|
D|-0x0x0x0x0x-0-3-5---0x0x0x0x0x-0-3-5---0x0x0x0x0x-0-3-5-3-3x3x3x-5x5x5x-0-3-5-0--|
x2

Weird sound going on here sounds like Quinn's scratching the stings with his pick or 
down the fret board, unsure.

Chorus
e|---------------------------------------------------------------------------|
B|---------------------------------------------------------------------------|
G|-----5-4-------------------------------------------------------------------|
D|-0-3-3-2-------------------------------------------------------------------|
A|-0-3-3-2-------------------------------------------------------------------|
D|-0-3-----------------------------------------------------------------------|
x4
There's a lead solo part in behind this but I havn't worked it out yet.

Outro
D|---------------------------------------------------------------------------------|
e|---------------------------------------------------------------------------------|
B|---------------------------------------------------------------------------------|
G|---------------------------------------------------------------------------------|
D|------------------0-----------------0-------------------3-3x3x3x-5x5x5x-------0--|
A|-0x0x0x0x0x---------0x0x0x0x0x---------0x0x0x0x0x-------3-3x3x3x-5x5x5x-------0--|
D|-0x0x0x0x0x-0-3-5---0x0x0x0x0x-0-3-5---0x0x0x0x0x-0-3-5-3-3x3x3x-5x5x5x-0-3-5-0--|

D|---------------------------------------------------------------------------|
e|---------------------------------------------------------------------------|
B|---------------------------------------------------------------------------|
G|---------------------------------------------------------------------------|
D|------------------6------------------6------------------3-3x3x3x-5x5x5x----|
A|-0x0x0x0x0x-------6-0x0x0x0x0x-------6-0x0x0x0x0x-------3-3x3x3x-5x5x5x----|
D|-0x0x0x0x0x-0-3-5-6-0x0x0x0x0x-0-3-5-6-0x0x0x0x0x-0-3-5-3-3x3x3x-5x5x5x----|

e|---------------------------------------------------------------------------|
B|---------------------------------------------------------------------------|
G|---------------------------------------------------------------------------|
D|-------0-------0------0-------0--------------------------------------------|
A|------------------------------0--------------------------------------------|
D|-0-3-5---0-3-5---0-3-5--0-3-5-0--------------------------------------------|

| /  slide up
| \  slide down
| h  hammer-on
| p  pull-off
| ~  vibrato
| +  harmonic
| x  Mute note
===============================================================================

            
            
Suggest correction
Creating personal tab
Creating personal tab
You can edit any tab online and save it as your Personal.

You can edit, replace or remove any tab part or add personal notes – all changes will be seen only by you.

Personal tabs can be accessed anytime from any device, even offline.
Learn more »
Give kudos to tab author, rate the tab!
1 2 3 4 5
comments
print report bad tab
2 comments total.
0 reply
woahitsjesse 31 May 24, 2007 07:05 AM

The playing, and add where needed, is actually like this:

e|----------
B|----------
G|----------
D|-------0--
A|----------
D|-2h3h5----

OR

e|----------
B|----------
G|----------
D|----------
A|-------5--
D|-2h3h5----
the easier was to play it instead of playing the open on D, use 5 on A. The hammer ons are deffinitly 2h3h5 though :)

0 reply
FranKLynn 20 Apr 12, 2008 07:32 PM

A lot of mistakes, but you're the only one who got the outro right.

guest
You may want to rate the tab now too:
select rating
Wanna post a correction for this tab? Suggest correction