Oops, an error
Loading. Please wait.

Hard To Say Bass Tab

1,366 views 12 this week
2 commentsread comments
1 2 3 4 5
excellent!
x 2
add to favorites
launch autoscroll
font size
0
reset
guitar tuner
Tab Pro tools
  • play this tab
  • loop segment
  • change instrument
  • show fretboard
  • metronome
Autoscroll
slow
fast
+/-
esc
set tempo
stop
Contributor
Difficulty
intermediate
Band:The Used
Song:Hard To Say
Tuning:Standard(G,D,A,E)

Intro:(no bass)

Verse1:
  G---------------------------------------|
  D---------------------------------------|
  A-8/55555555-222222222-0000000000000000-|2x
  E---------------------------------------|

  G--------------------------------------------------|
  D--------------------------------------------------|
  A----------00000000-2222-0000-------------------0~-|
  E-33333333--------------------33333333033333333----|

Chorus:
  G--------------------4----4---4---4---------------------|
  D---4---4---4---4---------------------4---4----5---5----|
  A-55-555-555-555--522--222-222-222-2-----------------5~-|
  E-----------------------------------22-222--233-333-3---|

Verse2:
  G-----------------------------------------------------------------------|
  D-------------------------------2244------------------------------24422-|
  A-55555555-22222222-005554455544-----55555555-22222222-00055544554------|
  E-----------------------------------------------------------------------|

  G--------------------------------------------------|
  D--------------------------------------------------|
  A----------00000000-2222-0000-------------------0~-|
  E-33333333--------------------33333333033333333----|

Chorus:this time play twice
  G--------------------4----4---4---4---------------------|
  D---4---4---4---4---------------------4---4----5---5----|
  A-55-555-555-555--522--222-222-222-2-----------------5~-|
  E-----------------------------------22-222--233-333-3---|

Bridge:
  G------------------------------------|
  D------------------------------------|
  A-77777777-22222222-3333333333333333-|2x
  E------------------------------------|

  G----------------------|
  D----------------------|
  A----0~~2~0~-------0~~-|
  E-3~~-------3~~23~~----|

Chorus:play twice
  G--------------------4----4---4---4---------------------|
  D---4---4---4---4---------------------4---4----5---5----|
  A-55-555-555-555--522--222-222-222-2-----------------5~-|
  E-----------------------------------22-222--233-333-3---|

  G--------------------------------------------------------|
  D-------------454--------------4455----------------------|
  A-555555555555---5-222222222222-----------------------5~-|
  E-----------------------------------22222222-33333333----|


thats it. if there are any problems or question contact at sinless_sep_bass@yahoo.com
comments
We did not receive enough feedback on this tab! Please rate:
print report bad tab
1 2 3 4 5
2 comments total.
0 reply
Misfit_princess wrote on July 20 2007, 09:17 am

Wow.
This tab is awesome =D
Thanks dude.

0 reply
Dagi wrote on May 3 2009, 05:18 am

perfect =) 5 stars

I want to post or [tab]
guest
You may want to rate the tab now too:
select rating
Please do not post tabs as comments. Select "correction" instead!