Oops, an error
Loading. Please wait.

Hospital Bass Tab

version 1
version 1

Whole song

Interactive

3,779 views 1 this week
2 commentsread comments
1 2 3 4 5
accurate
x 9
add to favorites
launch autoscroll
font size
0
reset
guitar tuner
Tab Pro tools
  • play this tab
  • loop segment
  • change instrument
  • show fretboard
  • metronome
Autoscroll
slow
fast
+/-
esc
set tempo
stop
Contributor
Difficulty
intermediate
The Used
Hospital

I think i got all. Rate fairly and enjoy :)

Intro/Verse 1
G||----------------------------------|----------------------------------|
D||----------------------------------|----------------------------------|
A||--5---5---5---5---5---5---5-------|--5---5---5---5---5---5---5-------|
D||----------------------------0-0-2-|----------------------------0-0-2-|
 
G||----------------------------------|--------------------------6-6-2---|
D||----------------------------------|--------------------2-----------2-|
A||--1---1---1---1---1---1---1-------|--4---4---4---4---4---4-2---------|
D||----------------------------3-3-0-|----------------------------------|
  
G||----------------------------------|----------------------------------|
D||----------------------------------|----------------------------------|
A||--5---5---5---5---5---5---5-------|--5---5---5---5---5---5---5-------|
D||----------------------------0-0-2-|----------------------------0-0-2-|
   
G||----------------------------------|-----------------------------|
D||----------------------------------|-----------------------------|
A||--1---1---1---1---1---1---1-------|--4---4---4---4---4\---------|
D||----------------------------3-3-0-|-----------------------------|

Chorus 
G||-------------------------------|-------------------------------|
D||-------------------------------|-------------------------------|
A||--1--1--1-1-1------------------|--3--3--3-3-3--------------5---|
D||--------------3--3-3-3-3-3-3-0-|--------------0--0-0-0-0-0---0-|
  
G||-------------------------------|-------------------------------|
D||-------------------------------|-------------------------------|
A||--1--1--1-1-1------------------|--3--3--3-3-3-3--3-3-3-3-3-3-3-|
D||--------------3--3-3-3-3-3-3-0-|-------------------------------|

Verse 2 
G||-------------------|
D||-------------------|
A||-------------------|
D||--0~~~-------------|

G||----------------------------------|----------------------------------|
D||----------------------------------|----------------------------------|
A||--5---5---5---5---5---5---5-------|--5---5---5---5---5---5---5-------|
D||----------------------------0-0-2-|----------------------------0-0-2-|
   
Chorus 
G||-----|
D||-----|
A||-15/-|
D||-----|

G||-------------------------------|-------------------------------|
D||-------------------------------|-------------------------------|
A||--1--1--1-1-1------------------|--3--3--3-3-3--------------5---|
D||--------------3--3-3-3-3-3-3-0-|--------------0--0-0-0-0-0---0-|
  
G||-------------------------------|-------------------------------|
D||-------------------------------|-------------------------------|
A||--1--1--1-1-1------------------|--3--3--3-3-3-3--3-3-3-3-3-3-3-|
D||--------------3--3-3-3-3-3-3-0-|-------------------------------|

G||-------------------------------|-------------------------------|
D||-------------------------------|-------------------------------|
A||--1--1--1-1-1------------------|--3--3--3-3-3--------------5---|
D||--------------3--3-3-3-3-3-3-0-|--------------0--0-0-0-0-0---0-|
  
G||-------------------------------|-------------------------------|
D||-------------------------------|-------------------------------|
A||--1--1--1-1-1------------------|--3--3--3-3-3-3--3-3-3-3-3-3-3-|
D||--------------3--3-3-3-3-3-3-0-|-------------------------------|
 
G||--------------------------------|--------------------------------------------|
D||--------------------------------|--------------------------------------------|
A||--3--3--3-3-3-3--3-3-3-3-3-3-3--|--15--15--15-15-15-15--15-15-15-15-15-15-15-|
D||--------------------------------|--------------------------------------------|

Bridge  
G||-------------------|-------------------|----------------------------------|
D||-------------------|-------------------|--------5-------5-------5---5-----|
A||-------------------|-------------------|--5-3-5---5-3-5---5-3-5-------5-3-|
D||--0----------------|-------------------|----------------------------------|
  
G||----------------------------------|----------------------------------|
D||--------3-------3-------3---3-----|--------5-------5-------5---5-----|
A||--4-3-4---4-3-4---4-3-4-------2-3-|--5-3-5---5-3-5---5-3-5-------5-3-|
D||----------------------------------|----------------------------------|
  
G||----------------------------------|---------------------------|
D||--------3-------3-------3---------|---------------------------|
A||--4-3-4---4-3-4---4-3-4-----------|--5-5-5----5-5-5----5-5-5--|
D||--------------------------x-x-x-x-|---------------------------|
  
G||---------------------------|---------------------------|
D||---------------------------|---------------------------|
A||--4-4-4----4-4-4----x-x-x--|--5-5-5----5-5-5----5-5-5--|
D||---------------------------|---------------------------|
    
G||---------------------------|
D||---------------------------|
A||--4-4-4----4-4-4----4-4-4--|
D||---------------------------|

Chorus
G||-----|
D||-----|
A||-15/-|
D||-----|
 
G||-------------------------------|-------------------------------|
D||--------3-2-0------------------|---------------------------3---|
A||--1--1-------------------------|--3--3--3-3-3------5-5-3-5---3-|
D||--------------3--3-3-3-3-3-3-0-|--------------0--0-------------|
  
G||-------------------------------|-------------------------------|
D||--------3-2-0------------------|-------------------------------|
A||--1--1-------------------------|--3--3--3-3-3-3--3-3-3-3-3-3-3-|
D||--------------3--3-3-3-3-3-3-0-|-------------------------------|

G||-------------------------------|-------------------------------|
D||--------3-2-0------------------|---------------------------3---|
A||--1--1-------------------------|--3--3--3-3-3------5-5-3-5---3-|
D||--------------3--3-3-3-3-3-3-0-|--------------0--0-------------|
  
G||-------------------------------|-------------------------------|
D||--------3-2-0------------------|-------------------------------|
A||--1--1-------------------------|--3--3--3-3-3-3--3-3-3-3-3-3-3-|
D||--------------3--3-3-3-3-3-3-0-|-------------------------------|
  
G||--------------------------------------------|
D||--------------------------------------------|
A||--15--15--15-15-15-15--15-15-15-15-15-15-15-|
D||--------------------------------------------|

Outro
G||----------------------------------|
D||----------------------------------|
A||----------------------------------|
D||--0---0---0---0---0---0---0-0-0-2-|

G||----------------------------------|
D||----------------------------------|
A||----------------------------------|
D||--0---0---0---0---0---0---0-0-0-2-|

G||----------------------------------|
D||----------------------------------|
A||----------------------------------|
D||--0---0---0---0---0---0---0-0-0-2-|

G||----------------------------------|
D||----------------------------------|
A||----------------------------------|
D||--0---0---0---0---0---0---0-0-0-2-|

G||----------------------------------|
D||----------------------------------|
A||----------------------------------|
D||--0---0---0---0---0---0---0-0-0-2-|

G||-----|
D||-----|
A||-----|
D||--0~-|
comments
print report bad tab
2 comments total.
0 reply
dogsmack wrote on June 12 2007, 07:07 am

nearly perfect ;)

0 reply
lil-bass-man wrote on January 13 2008, 11:41 pm

Sounds good to me, 1 or 2 notes wrong but still better than i could do.

I want to post or [tab]
guest
You may want to rate the tab now too:
select rating
Please do not post tabs as comments. Select "correction" instead!