Oops, an error
Loading. Please wait.

I Caught Fire In Your Eyes Tab

version 1
version 1

Intro

Whole song

19,075 views 1 this week
9 commentsread comments
1 2 3 4 5
x 14
add to favorites
launch autoscroll
font size
0
reset
how to read this tab
guitar tuner
×
Best way to learn
"I Caught Fire In Your Eyes"
Autoscroll
slow
fast
+/-
esc
set tempo
stop
-------------------------------------------------------------------------------
                             I Caught Fire (In Your Eyes)  (intro lead) - The Used
-------------------------------------------------------------------------------
Tabbed by:  Tim Lahan
Email:  timlahan@gmail.com

Tuning: Drop-D

e|--------9p0--------------------7p0-----------------------------------------|
B|--------------9p0---7h9--0----------9p0---7h9---0--------------------------|
G|------------------------------------------------------------11\9-----------|
D|---------------------------------------------------------------------------|
A|---------------------------------------------------------------------------|
E|---------------------------------------------------------------------------|
Suggest correction
comments
print report bad tab
9 comments total. Showing first comments.
0 reply
lostprophet86 16 May 13, 2006 07:04 PM

e|:|-9-----7------------
B|:|--9-7h9-9-9-7-7h9-9-

I think this is much better....

any suggestions?

0 reply
gigson111 143 May 18, 2006 01:08 PM

uh ya... dont post a correction buddy..lol i havent even the dam song

0 reply
Guitar_picker_1 20 Sep 25, 2006 08:50 AM

Intro sounds perfect, dont correct it, it sounds like shit the way you wanna play it.

guest
You may want to rate the tab now too:
select rating
Wanna post a correction for this tab? Suggest correction