Oops, an error
Loading. Please wait.

I Caught Fire In Your Eyes tab

version 3
version 3

Whole song

4,149 views 9 this week
1 commentread comment
1 2 3 4 5
1 last vote to show rating
add to favorites
×
Save as Personal and add changes to this tab that will be seen only by you. Learn more ›
×
You can save this tab as Personal to edit and correct it or add notes. All changes will be seen only by you. Learn more »
launch autoscroll
font size
0
reset
how to read this tab
guitar tuner
edit
Autoscroll
slow
fast
+/-
esc
set tempo
stop
----------------------------------------------------------------------------
          I Caught Fire In Your Eyes - The Used
----------------------------------------------------------------------------



Guitar 1: E A D G B E
Guitar 2: D A D G B E




Guitar 1:

     E   E  E   E  E   E   E  E      E  E   E  E   E   E  E   E   
E|--9p--0--------------------7h--|--0---------------------------|
B|---------9p--0--7h--9p--0------|-----9p--0--7h--9p--0--7p--0--|
G|-------------------------------|------------------------------|
D|-------------------------------|------------------------------|
A|-------------------------------|------------------------------|
E|-------------------------------|------------------------------|


  E   E  E   E  E   E   E  E      E  E   E  E   E   E  E   E   
--9p--0--------------------7h--|--0---------------------------|
---------9p--0--7h--9p--0------|-----9p--0--7h--9p--0--7p--0--|
-------------------------------|------------------------------|
-------------------------------|------------------------------|
-------------------------------|------------------------------|
-------------------------------|------------------------------|


  E   E  E   E  E   E   E  E      E  E   E  E   E   E  E   E   
--9p--0--------------------7h--|--0---------------------------|
---------9p--0--7h--9p--0------|-----9p--0--7h--9p--0--7p--0--|
-------------------------------|------------------------------|
-------------------------------|------------------------------|
-------------------------------|------------------------------|
-------------------------------|------------------------------|


  E   E  E   E  E   E   E  E      E  E   E  E   E   E  E   E   
--9p--0--------------------7h--|--0---------------------------|
---------9p--0--7h--9p--0------|-----9p--0--7h--9p--0--7p--0--|
-------------------------------|------------------------------|
-------------------------------|------------------------------|
-------------------------------|------------------------------|
-------------------------------|------------------------------|


  E   E  E   E  E   E   E  E      E  E   E  E   E   E  E   E   
--9p--0--------------------7h--|--0---------------------------|
---------9p--0--7h--9p--0------|-----9p--0--7h--9p--0--7p--0--|
-------------------------------|------------------------------|
-------------------------------|------------------------------|
-------------------------------|------------------------------|
-------------------------------|------------------------------|


  E   E  E   E  E   E   E  E      E  E   E  E   E   E  E   E   
--9p--0--------------------7h--|--0---------------------------|
---------9p--0--7h--9p--0------|-----9p--0--7h--9p--0--7p--0--|
-------------------------------|------------------------------|
-------------------------------|------------------------------|
-------------------------------|------------------------------|
-------------------------------|------------------------------|


  E   E  E   E  E   E   E  E      E  E   E  E   E   E  E   E               
--9p--0--------------------7h--|--0---------------------------|
---------9p--0--7h--9p--0------|-----9p--0--7h--9p--0--7p--0--|
-------------------------------|------------------------------|
-------------------------------|------------------------------|
-------------------------------|------------------------------|
-------------------------------|------------------------------|




  E   E  E   E  E   E   E  E      E  E   E  E   E   E  E   E   
--9p--0--------------------7h--|--0---------------------------|
---------9p--0--7h--9p--0------|-----9p--0--7h--9p--0--7p--0--|
-------------------------------|------------------------------|
-------------------------------|------------------------------|
-------------------------------|------------------------------|
-------------------------------|------------------------------|


  E   E  E   E  E   E   E  E      E  E   E  E   E   E  E   E   
--9p--0--------------------7h--|--0---------------------------|
---------9p--0--7h--9p--0------|-----9p--0--7h--9p--0--7p--0--|
-------------------------------|------------------------------|
-------------------------------|------------------------------|
-------------------------------|------------------------------|
-------------------------------|------------------------------|


  E   E  E   E  E   E   E  E      E  E   E  E   E   E  E   E               
--9p--0--------------------7h--|--0---------------------------|
---------9p--0--7h--9p--0------|-----9p--0--7h--9p--0--7p--0--|
-------------------------------|------------------------------|
-------------------------------|------------------------------|
-------------------------------|------------------------------|
-------------------------------|------------------------------|


   E  E  E  E  E  E  E  E   
|--9--9--9--9--9--9--9--9--|
|--------------------------|
|--------------------------|
|--------------------------|
|--------------------------|
|--------------------------|


  E  E  E  E  E  E  E  E      E   E   E   E   E   E   E   E   
--9--9--9--9--9--9--9--9--|--12--12--12--12--12--12--12--12--|
--------------------------|----------------------------------|
--------------------------|----------------------------------|
--------------------------|----------------------------------|
--------------------------|----------------------------------|
--------------------------|----------------------------------|



  E   E   E   E   E   E   E   E                                             
--12--12--12--12--12--12--12--12--|
----------------------------------|
----------------------------------|
----------------------------------|
----------------------------------|
----------------------------------|



  E   E  E   E  E   E   E  E      E  E   E  E   E   E  E   E   
--9p--0--------------------7h--|--0---------------------------|
---------9p--0--7h--9p--0------|-----9p--0--7h--9p--0--7p--0--|
-------------------------------|------------------------------|
-------------------------------|------------------------------|
-------------------------------|------------------------------|
-------------------------------|------------------------------|


   E  E  E  E   E   E  E   E     E  E  E  E  E  E  E  E                     
--12--0--9--0-----------------|--------------------------|
---------------10--12--0--10--|--0--9--0--7--9--0--7--0--|
------------------------------|--------------------------|
------------------------------|--------------------------|
------------------------------|--------------------------|
------------------------------|--------------------------|



   E  E  E  E  E  E  E  E   
|--------------------------|
|--------------------------|
|--9--9--9--9--9--9--9--9--|
|--------------------------|
|--7--7--7--7--7--7--7--7--|
|--------------------------|


  E  E  E  E  E  E  E  E     E  E  E  E  E  E  E  E   
--------------------------|--------------------------|
--------------------------|--------------------------|
--9--9--9--9--9--9--9--9--|--9--9--9--9--9--9--9--9--|
--------------------------|--------------------------|
--7--7--7--7--7--7--7--7--|--7--7--7--7--7--7--7--7--|
--------------------------|--------------------------|


  E  E  E  E  E  E  E  E                           
--------------------------|
--------------------------|
--9--9--9--9--9--9--9--9--|
--------------------------|
--7--7--7--7--7--7--7--7--|
--------------------------|


   E  E  E  E   E   E  E   E     E  E  E  E  E  E  E  E                     
--12--0--9--0-----------------|--------------------------|
---------------10--12--0--10--|--0--9--0--7--9--0--7--0--|
------------------------------|--------------------------|
------------------------------|--------------------------|
------------------------------|--------------------------|
------------------------------|--------------------------|







Guitar 2:


                                  E  E  H.              E  E  H.            
E|-------|-------|-------|-------|---------------------|------------------|
B|-------|-------|-------|-------|---------------------|------------------|
G|-------|-------|-------|-------|--6--6---------------|--4--4------------|
D|-------|-------|-------|-------|--6--6---------------|--4--4------------|
A|-------|-------|-------|-------|--4--4---------------|--2--2------------|
D|-------|-------|-------|-------|---------------------|------------------|


  W                   W                   W                   W                 
-------------------|-------------------|-------------------|---------------|
-------------------|-------------------|-------------------|---------------|
-------------------|-------------------|--4----------------|--L------------|
--2----------------|--L----------------|--4----------------|--L------------|
--2----------------|--L----------------|--2----------------|--L------------|
--2----------------|--L----------------|-------------------|---------------|


  W                   W                   W                   W                 
-------------------|-------------------|-------------------|---------------|
-------------------|-------------------|-------------------|---------------|
--2----------------|--L----------------|--6----------------|--4------------|
--2----------------|--L----------------|--6----------------|--4------------|
--0----------------|--L----------------|--4----------------|--2------------|
-------------------|-------------------|-------------------|---------------|





  H        H           W                   H        H         
--9-----------------|-------------------|--7-----------------|
-----------9--------|--L----------------|-----------9--------|
--------------------|-------------------|--------------------|
--------------------|-------------------|--------------------|
--------------------|-------------------|--------------------|
--------------------|-------------------|--------------------|





                      H        H           W                 
-------------------|--9-----------------|-------------------|
-------------------|-----------9--------|--L----------------|
-------------------|--------------------|-------------------|
-------------------|--------------------|-------------------|
-------------------|--------------------|-------------------|
-------------------|--------------------|-------------------|


                                           PM PM PM PM PM PM PM PM  
  H        H           W                   E  E  E  E  E  E  E  E   
--7-----------------|-------------------|--------------------------|
-----------9--------|--L----------------|--------------------------|
--------------------|-------------------|--6--6--6--6--6--6--6--6--|
--------------------|-------------------|--------------------------|
--------------------|-------------------|--------------------------|
--------------------|-------------------|--------------------------|


  PM PM PM PM PM PM PM PM    PM PM PM PM PM PM PM PM  
  E  E  E  E  E  E  E  E     E  E  E  E  E  E  E  E   
--------------------------|--------------------------|
--------------------------|--------------------------|
--6--6--6--6--6--6--6--6--|--9--9--9--9--9--9--9--9--|
--------------------------|--------------------------|
--------------------------|--------------------------|
--------------------------|--------------------------|


  PM PM PM PM PM PM PM PM                                                
  E  E  E  E  E  E  E  E     E  E  E  H        E     H.           E  E   
--------------------------|-----------------------|---------------------|
--------------------------|-----------------------|---------------------|
--9--9--9--9--9--9--9--9--|-----------------------|---------------------|
--------------------------|--2-----2--------------|------------------2--|
--------------------------|--0-----0--------------|------------------0--|
--------------------------|-----------------------|---------------------|


  E  E  E  H        E                       H        Q.     E   
-----------------------|-----|-----|-----|---------------------|
-----------------------|-----|-----|-----|---------------------|
-----------------------|-----|-----|-----|---------------------|
--2-----2--------------|-----|-----|-----|--2--------2------2--|
--0-----0--------------|-----|-----|-----|--2--------2------2--|
-----------------------|-----|-----|-----|--2--------2------2--|


  Q    Q    E  Q    E     H        Q.     E     Q    Q    E  Q    E   
-----------------------|---------------------|-----------------------|
-----------------------|---------------------|-----------------------|
-----------------------|---------------------|-----------------------|
--L----2----2--2----2--|--9--------9------9--|--L----9----9--9----9--|
--L----2----2--2----2--|--9--------9------9--|--L----9----9--9----9--|
--L----2----2--2----2--|--9--------9------9--|--L----9----9--9----9--|


  H        Q.     E     Q    Q    E  Q    E      W                 
---------------------|-----------------------|--------------------|
---------------------|-----------------------|--------------------|
---------------------|-----------------------|--------------------|
--7--------7------7--|--L----7----7--7----7--|--11----------------|
--7--------7------7--|--L----7----7--7----7--|--11----------------|
--7--------7------7--|--L----7----7--7----7--|--11----------------|


  W                   H        Q.     E     Q    Q    E  Q    E   
-------------------|---------------------|-----------------------|
-------------------|---------------------|-----------------------|
-------------------|---------------------|-----------------------|
--9----------------|--2--------2------2--|--L----2----2--2----2--|
--9----------------|--2--------2------2--|--L----2----2--2----2--|
--9----------------|--2--------2------2--|--L----2----2--2----2--|


  H        Q.     E     Q    Q    E  Q    E     H        Q.     E   
---------------------|-----------------------|---------------------|
---------------------|-----------------------|---------------------|
---------------------|-----------------------|---------------------|
--9--------9------9--|--L----9----9--9----9--|--7--------7------7--|
--9--------9------9--|--L----9----9--9----9--|--7--------7------7--|
--9--------9------9--|--L----9----9--9----9--|--7--------7------7--|


  Q    Q    E  Q    E      W                   W                 
-----------------------|--------------------|-------------------|
-----------------------|--------------------|-------------------|
-----------------------|--------------------|-------------------|
--L----7----7--7----7--|--11----------------|--9----------------|
--L----7----7--7----7--|--11----------------|--9----------------|
--L----7----7--7----7--|--11----------------|--9----------------|





  T T H.           E.     W                   W                 
------9----------------|--L----------------|--L----------------|
----9------------------|--L----------------|--L----------------|
--9--------------------|--L----------------|--L----------------|
-----------------------|-------------------|-------------------|
-----------------------|-------------------|-------------------|
-----------------------|-------------------|-------------------|


                      T  T H.           E.                       
-------------------|-------9----------------|-------------------|
-------------------|----10------------------|-------------------|
-------------------|--9---------------------|-------------------|
-------------------|------------------------|-------------------|
-------------------|------------------------|-------------------|
-------------------|------------------------|-------------------|


                                               PM--------------------|  
-------12----------------|-------------------|--------------------------|
----10-------------------|-------------------|--------------------------|
--9----------------------|-------------------|--6--6--6--6--6--6--6--6--|
-------------------------|-------------------|--------------------------|
-------------------------|-------------------|--------------------------|
-------------------------|-------------------|--------------------------|


PM------------------------------------------------|  
--------------------------|--------------------------|
--------------------------|--------------------------|
--6--6--6--6--6--6--6--6--|--9--9--9--9--9--9--9--9--|
--------------------------|--------------------------|
--------------------------|--------------------------|
--------------------------|--------------------------|


  PM PM PM PM PM PM PM PM                                               
  E  E  E  E  E  E  E  E     E  E  E  Q.     E  E                       
--------------------------|------------------------|-------------------|
--------------------------|------------------------|-------------------|
--9--9--9--9--9--9--9--9--|------------------------|-------------------|
--------------------------|--2-----2---------2--2--|-------------------|
--------------------------|--0-----0---------0--0--|-------------------|
--------------------------|------------------------|-------------------|


  E  E  E  Q.     E  E            W                     W                  
------------------------|-----|---------------------|---------------------|
------------------------|-----|---------------------|---------------------|
------------------------|-----|--(2)----------------|--(6)----------------|
--2-----2---------2--2--|-----|--(2)----------------|--(6)----------------|
--0-----0---------0--0--|-----|--(0)----------------|--(4)----------------|
------------------------|-----|---------------------|---------------------|


  H        Q.     E     Q    Q    E  Q    E     H        Q.     E   
---------------------|-----------------------|---------------------|
---------------------|-----------------------|---------------------|
---------------------|-----------------------|---------------------|
--2--------2------2--|--L----2----2--2----2--|--9--------9------9--|
--2--------2------2--|--L----2----2--2----2--|--9--------9------9--|
--2--------2------2--|--L----2----2--2----2--|--9--------9------9--|


  Q    Q    E  Q    E     H        Q.     E     Q    Q    E  Q    E   
-----------------------|---------------------|-----------------------|
-----------------------|---------------------|-----------------------|
-----------------------|---------------------|-----------------------|
--L----9----9--9----9--|--7--------7------7--|--L----7----7--7----7--|
--L----9----9--9----9--|--7--------7------7--|--L----7----7--7----7--|
--L----9----9--9----9--|--7--------7------7--|--L----7----7--7----7--|


   W                   W                   H        Q.     E   
--------------------|-------------------|---------------------|
--------------------|-------------------|---------------------|
--------------------|-------------------|---------------------|
--11----------------|--9----------------|--2--------2------2--|
--11----------------|--9----------------|--2--------2------2--|
--11----------------|--9----------------|--2--------2------2--|


  Q    Q    E  Q    E     H        Q.     E     Q    Q    E  Q    E   
-----------------------|---------------------|-----------------------|
-----------------------|---------------------|-----------------------|
-----------------------|---------------------|-----------------------|
--L----2----2--2----2--|--9--------9------9--|--L----9----9--9----9--|
--L----2----2--2----2--|--9--------9------9--|--L----9----9--9----9--|
--L----2----2--2----2--|--9--------9------9--|--L----9----9--9----9--|


  H        Q.     E     Q    Q    E  Q    E       W                  
---------------------|-----------------------|----------------------|
---------------------|-----------------------|----------------------|
---------------------|-----------------------|----------------------|
--7--------7------7--|--L----7----7--7----7--|--(11)----------------|
--7--------7------7--|--L----7----7--7----7--|--(11)----------------|
--7--------7------7--|--L----7----7--7----7--|--(11)----------------|


   W                                                          
---------------------|-------------------|-------------------|
---------------------|-------------------|-------------------|
---------------------|-------------------|-------------------|
--(9)----------------|-------------------|-------------------|
--(9)----------------|-------------------|-------------------|
--(9)----------------|-------------------|-------------------|


  E  E  E  E  E.  Q    S    H        E  Q.        E  E  E  E  E.  Q    S  
-------------------------|---------------------|-------------------------|
-------------------------|---------------------|-------------------------|
--6--6--6--6--6----------|-----------6--4------|--2--2--2--2--2----------|
--6--6--6--6--6----------|-----------6--4------|--2--2--2--2--2----------|
--4--4--4--4--4----------|-----------4--2------|--0--0--0--0--0----------|
-------------------------|---------------------|-------------------------|


  H        E  Q.        Q    Q    Q    Q       Q    Q    Q    Q     
---------------------|----------------------|----------------------|
---------------------|----------------------|----------------------|
-----------2---------|----------------------|----------------------|
-----------2--2------|--2----2----2----2----|--2----2----2----2----|
-----------0--2------|--2----2----2----2----|--2----2----2----2----|
--------------2------|--2----2----2----2----|--2----2----2----2----|


  Q    Q    Q    Q       Q    Q    Q    Q       E  E  E  E  E.  Q    S  
----------------------|----------------------|-------------------------|
----------------------|----------------------|-------------------------|
----------------------|----------------------|--6--6--6--6--6----------|
--4----4----4----4----|--4----4----4----4----|--6--6--6--6--6----------|
--2----2----2----2----|--2----2----2----2----|--4--4--4--4--4----------|
----------------------|----------------------|-------------------------|


  H        E  Q.        E  E  E  E  E.  Q    S    H        E  Q.      
---------------------|-------------------------|---------------------|
---------------------|-------------------------|---------------------|
-----------6--4------|--2--2--2--2--2----------|-----------2---------|
-----------6--4------|--2--2--2--2--2----------|-----------2--2------|
-----------4--2------|--0--0--0--0--0----------|-----------0--2------|
---------------------|-------------------------|--------------2------|


  Q    Q    Q    Q       Q    Q    Q    Q       Q    Q    Q    Q     
----------------------|----------------------|----------------------|
----------------------|----------------------|----------------------|
----------------------|----------------------|----------------------|
--2----2----2----2----|--2----2----2----2----|--4----4----4----4----|
--2----2----2----2----|--2----2----2----2----|--2----2----2----2----|
--2----2----2----2----|--2----2----2----2----|----------------------|




                       PM------------------------------------------------| 
----------------------|--------------------------|-------------------------|
----------------------|--------------------------|-------------------------|
----------------------|--------------------------|-------------------------|
--4----4----4----4----|--2--2--2--2--2--2--2--2--|--2--2--2--2--2--2--2--2-|
--2----2----2----2----|--0--0--0--0--0--0--0--0--|--0--0--0--0--0--0--0--0-|
----------------------|--------------------------|-------------------------|


  W                   W                   H        Q.     E   
-------------------|-------------------|---------------------|
-------------------|-------------------|---------------------|
-------------------|-------------------|---------------------|
-------------------|-------------------|--2--------2------2--|
-------------------|-------------------|--2--------2------2--|
-------------------|-------------------|--2--------2------2--|


  Q    Q    E  Q    E     H        Q.     E     Q    Q    E  Q    E   
-----------------------|---------------------|-----------------------|
-----------------------|---------------------|-----------------------|
-----------------------|---------------------|-----------------------|
--L----2----2--2----2--|--9--------9------9--|--L----9----9--9----9--|
--L----2----2--2----2--|--9--------9------9--|--L----9----9--9----9--|
--L----2----2--2----2--|--9--------9------9--|--L----9----9--9----9--|


  H        Q.     E     Q    Q    E  Q    E      W                 
---------------------|-----------------------|--------------------|
---------------------|-----------------------|--------------------|
---------------------|-----------------------|--------------------|
--7--------7------7--|--L----7----7--7----7--|--11----------------|
--7--------7------7--|--L----7----7--7----7--|--11----------------|
--7--------7------7--|--L----7----7--7----7--|--11----------------|


  W                   H        Q.     E     Q    Q    E  Q    E   
-------------------|---------------------|-----------------------|
-------------------|---------------------|-----------------------|
-------------------|---------------------|-----------------------|
--9----------------|--2--------2------2--|--L----2----2--2----2--|
--9----------------|--2--------2------2--|--L----2----2--2----2--|
--9----------------|--2--------2------2--|--L----2----2--2----2--|


  H        Q.     E     Q    Q    E  Q    E     H        Q.     E   
---------------------|-----------------------|---------------------|
---------------------|-----------------------|---------------------|
---------------------|-----------------------|---------------------|
--9--------9------9--|--L----9----9--9----9--|--7--------7------7--|
--9--------9------9--|--L----9----9--9----9--|--7--------7------7--|
--9--------9------9--|--L----9----9--9----9--|--7--------7------7--|


  Q    Q    E  Q    E      W                   W                 
-----------------------|--------------------|-------------------|
-----------------------|--------------------|-------------------|
-----------------------|--------------------|-------------------|
--L----7----7--7----7--|--11----------------|--9----------------|
--L----7----7--7----7--|--11----------------|--9----------------|
--L----7----7--7----7--|--11----------------|--9----------------|


  H        Q.     E     Q    Q    E  Q    E     H        Q.     E   
---------------------|-----------------------|---------------------|
---------------------|-----------------------|---------------------|
--9--------9------9--|--L----9----9--9----9--|--4--------4------4--|
--9--------9------9--|--L----9----9--9----9--|--4--------4------4--|
--7--------7------7--|--L----7----7--7----7--|--2--------2------2--|
---------------------|-----------------------|---------------------|


  Q    Q    E  Q    E     H        Q.     E     Q    Q    E  Q    E   
-----------------------|---------------------|-----------------------|
-----------------------|---------------------|-----------------------|
--L----4----4--4----4--|--2--------2------2--|--L----2----2--2----2--|
--L----4----4--4----4--|--2--------2------2--|--L----2----2--2----2--|
--L----2----2--2----2--|--0--------0------0--|--L----0----0--0----0--|
-----------------------|---------------------|-----------------------|



E  E  E  E   E   E  E   E     E  E  E  E  E  E  E  E     H        Q.    E   
--12--0--9--0-----------------|--------------------------|-----------------|
---------------10--12--0--10--|--0--9--0--7--9--0--7--0--|-----------------|
------------------------------|--------------------------|--9------9----9--|
------------------------------|--------------------------|--9------9----9--|
------------------------------|--------------------------|--7------7----7--|
------------------------------|--------------------------|-----------------|


  Q    Q    E  Q    E     H        Q.     E     Q    Q    E  Q    E   
-----------------------|---------------------|-----------------------|
-----------------------|---------------------|-----------------------|
--L----9----9--9----9--|--4--------4------4--|--L----4----4--4----4--|
--L----9----9--9----9--|--4--------4------4--|--L----4----4--4----4--|
--L----7----7--7----7--|--2--------2------2--|--L----2----2--2----2--|
-----------------------|---------------------|-----------------------|


 H        Q.     E     Q    Q    E  Q    E      E  E  E  E   E   E  E   E   
---------------------|-----------------------|--12--0--9--0----------------|
---------------------|-----------------------|---------------10--12--0--10-|
--2--------2------2--|--L----2----2--2----2--|-----------------------------|
--2--------2------2--|--L----2----2--2----2--|-----------------------------|
--0--------0------0--|--L----0----0--0----0--|-----------------------------|
---------------------|-----------------------|-----------------------------|


  E  E  E  E  E  E  E  E      E  E  E  E   E   E  E   E   
--------------------------|--12--0--9--0-----------------|
--0--9--0--7--9--0--7--0--|---------------10--12--0--10--|
--------------------------|------------------------------|
--------------------------|------------------------------|
--------------------------|------------------------------|
--------------------------|------------------------------|


  E  E  E  E  E  E  E  E      W                   W                 
--------------------------|--12----------------|--L----------------|
--0--9--0--7--9--0--7--0--|--------------------|-------------------|
--------------------------|--------------------|-------------------|
--------------------------|--------------------|-------------------|
--------------------------|--------------------|-------------------|
--------------------------|--------------------|-------------------|




Duration Legend
---------------
W - whole
H - half
Q - quarter
E - 8th
S - 16th
T - 32nd
X - 64th
. - note dotted
|-n-|  - n-tuplets


Tablature Legend
----------------
L - tied note
x - dead note
g - grace note
(n) - ghost note
> - accentuded note
NH - natural harmonic
AH - artificial harmonic
TH - tapped harmonic
SH - semi harmonic
PH - pitch harmonic
h - hammer on
p - pull off
b - bend
br - bendRelease
pb - preBend
pbr - preBendRelease
brb - bendReleaseBend
\n/ - tremolo bar dip
\n - tremolo bar dive
-/n - tremolo bar Release up
/n\ - tremolo bar inverted dip
/n - tremolo bar return
-\n - tremolo bar Release down
S - shift slide
s - legato slide
/ -  slide into from below or out of upwards
\ -  slide into from above or out of downwards
~ - vibrato
W - wide vibrato
tr - trill
TP - tremolo picking
T - tapping
S - slap
P - pop
< - fade in
^ - brush up
v - brush down

            
            
Suggest correction
Creating personal tab
Creating personal tab
You can edit any tab online and save it as your Personal.

You can edit, replace or remove any tab part or add personal notes – all changes will be seen only by you.

Personal tabs can be accessed anytime from any device, even offline.
Learn more »
Give kudos to tab author, rate the tab!
1 2 3 4 5
comments
print report bad tab
1 comment total.
0 reply
slash_fan_dan 30 Mar 21, 2008 04:45 AM

guess its good. but why have u put a space between the pull off's and hammer on's?

guest
You may want to rate the tab now too:
select rating
Wanna post a correction for this tab? Suggest correction