Oops, an error
Loading. Please wait.

Im A Fake Bass Tab

version 1
version 1

Whole song

Interactive

2,293 views 1 this week
2 commentsread comments
1 2 3 4 5
accurate
x 5
add to favorites
launch autoscroll
font size
0
reset
guitar tuner
Tab Pro tools
  • play this tab
  • loop segment
  • change instrument
  • show fretboard
  • metronome
Autoscroll
slow
fast
+/-
esc
set tempo
stop
Difficulty
intermediate
tuning standart
feel the music

bert poem..

G|-----------------------------------------------------|
D|-----------------------------------------------------| repeat 2 times
A|7-7-7-7-7-7-10-10-10-10-10-10------------------------|
E|------------------------------8-8-8-8-8-8-8-8-8-8-8-8|

Verse 1
G|-----------------------|
D|-----------------------|
A|-7---10----------------|
E|----------8---8-8-8-8-8|

G|-----------------------|
D|-----------------------|
A|-7---10----------------|
E|----------8---8-8-8-8-8|

Pre-Chorus
G|---------------------------------------------------------|
D|----9-----9------12--------12----------------------------| repeat 2 times
A|-7-7-7-7-7-10-10---10-10-10-----10---10---10---10---10---|
E|-----------------------------8-8--8-8--8-8--8-8--8-8--8-8|

Chorus
G|------------------------------------------------|
D|------------------------------------------------| repeat 2 times
A|-------------3-3-3-3-3-3------------------------|
E|-0-0-0-0-0-0-------------3-3-3-3-3-3-3-3-3-3-3-3|

G|---------------|
D|---------------|
A|--3---------3--|
E|0---3-----0---3|

Verse 2
G|-----------------------|
D|-----------------------|
A|-7---10----------------|
E|----------8---8-8-8-8-8|

G|-----------------------|
D|-----------------------|
A|-7---10----------------|
E|----------8---8-8-8-8-8|

Back to Pre-Chorus to Chorus then play this tab.

Chorus 2
G|--------------------------------|
D|--------------------------------| repeat 2 times
A|--------3-3-3-3-----------------|
E|0-0-0-0---------3-3-3-3--3-3-3-3|

G|----------------|
D|----------------| repeat 4 times
A|----3-3---------|
E|0-0-----3-3--3-3|

then play pre-chorus to chorus and the last play the chorus 2
i'm not sure the verse 2 is totally correct. but, just listen to the song and try to use this tab. ok?

cheers..
comments
print report bad tab
2 comments total.
0 reply
used123 wrote on January 25 2007, 06:40 pm

much better than the last one, but still a little off, id give it a 4. some endings to the verses and chorus have harder to hear higher parts, ill try to tab it, but i doubt i can do much better

0 reply
dogsmack wrote on October 7 2014, 01:46 pm

Clearly wrong. its definitely not played in standard tuning, because there are notes which are much deeper on the E string!
At minimum its drop D

I want to post or [tab]
guest
You may want to rate the tab now too:
select rating
Please do not post tabs as comments. Select "correction" instead!