Oops, an error
Loading. Please wait.

Im A Fake Bass Tab

version 2
version 2

Whole song

Interactive

2,605 views 1 this week
2 commentsread comments
1 2 3 4 5
excellent!
x 4
add to favorites
launch autoscroll
font size
0
reset
guitar tuner
Tab Pro tools
  • play this tab
  • loop segment
  • change instrument
  • show fretboard
  • metronome
×
Best way to learn
"Im A Fake"
Autoscroll
slow
fast
+/-
esc
set tempo
stop
Contributor
Intro
G |--------------------------------------------------------|
D |--------------------------------------------------------|
A |---77777777-1010101010101010----------------------------|x2
E |-----------------------------88888888-88888888----------|
	Verse Pt 1
G |--------------------------------------------------------|
D |-----10-9-7----10-9-7-----------------------------------|
A |---7--------10------------------------------------------|x2
E |----------------------8---8-8-8-8-8---------------------|
	Verse Pt 2
G |--------------------------------------------------------|
D |-----9---9------12------12------------------------------|
A |---77-777-7-1010--101010--10--10---10---10---10---------|
E |----------------------------88--8-8--8-8--8-8--8--------|

G |--------------------------------------------------------|
D |-----9---9------12------12------------------------------|
A |---77-777-7-1010--101010--10--10---10---10---10---------|
E |----------------------------88--8-8--8-8--8-8--8---8\---|
	Chorus
G |--------------------------------------------------------|
D |--------------------------------------------------------|
A |--------------------3333333333333333--------------------|x2
E |--00000000-33333333-------------------------------------|
	2nd Verse Pt 1
G |--------------------------------------------------------|
D |--------------------------------------------------------|
A |--7----10--------10---10---10---------------------------|
E |----------8-----8--8-8--8-8-----------------------------|

G |--------------------------------------------------------|
D |----------10-9------------------------------------------|
A |--7----10-----------10---10---10------------------------|
E |---------------8---8--8-8--8-8--------------------------|
	2nd Verse Pt 2
G |--------------9--------------------9--------------------|\ /
D |---------9-12---12-9----------9-12---12-9----------------- / \
A |--7-7-10-------------10-10-10----------------------------- /  \
E |---------------------------------------------------------- /   \
                                                                X2
G |--------------------------------------------------------|  -- /
D |----10-10-----10-10-------------------------------------| --- /
A |--------------------------------------------------------|---- /
E |--88--8--88888--8--888--------------------------------------- /
	Verse Pt 2
G |--------------------------------------------------------|
D |-----9---9------12------12------------------------------|
A |---77-777-7-1010--101010--10--10---10---10---10---------|
E |----------------------------88--8-8--8-8--8-8--8--------|

G |--------------------------------------------------------|
D |-----9---9------12------12------------------------------|
A |---77-777-7-1010--101010--10--10---10---10---10---------|
E |----------------------------88--8-8--8-8--8-8--8---8\---|
	Chorus
G |--------------------------------------------------------|
D |--------------------------------------------------------|
A |--------------------3333333333333333--------------------|x2
E |--00000000-33333333-------------------------------------|
	Interlude
G |--------------------------------------------------------|
D |--------------------------------------------------------|
A |--------------3333~-3333~-------------------------------|x2
E |--0000~-3333~-------------------------------------------|

G |--------------------------------------------------------|
D |--------------------------------------------------------|
A |----------3~--------------------------------------------|x6
E |--0~--3~------------------------------------------------|
	Build-Up
G |--------------------------------------------------------|
D |--------------------------------------------------------|
A |----------------3-3-3—-3-3-3----------------------------|x2
E |--0-0-0—--3-3-3-----------------------------------------|
	Chorus
G |--------------------------------------------------------|
D |--------------------------------------------------------|
A |--------------------3333333333333333--------------------|x2
E |--00000000-33333333-------------------------------------|
	Outro
G |--------------------------------------------------------|
D |--------------------------------------------------------|
A |--------------3333~—3333~-------------------------------|x2
E |--0000~—3333~-------------------------------------------|

G |--------------------------------------------------------|
D |--------------------------------------------------------|
A |-------------------------3-3-3-3~-----------------------|
E |--0000--0000--0000—0000~--------------------------------|
comments
print report bad tab
2 comments total.
0 reply
NemX162 wrote on December 26 2010, 09:20 pm

Thanks for the better tab.

0 reply
deathcrush-izac wrote on February 24 2016, 03:12 pm

no to shabby

I want to post or [tab]
guest
You may want to rate the tab now too:
select rating
Please do not post tabs as comments. Select "correction" instead!