Oops, an error
Loading. Please wait.

Im A Fake Bass Tab

version 3
version 3

Whole song

Interactive

128 views 3 this week
no commentswrite comment
1 2 3 4 5
please rate
add to favorites
launch autoscroll
font size
0
reset
guitar tuner
Tab Pro tools
  • play this tab
  • loop segment
  • change instrument
  • show fretboard
  • metronome
×
Best way to learn
"Im A Fake"
Autoscroll
slow
fast
+/-
esc
set tempo
stop
Contributor
Im a Fake - The Used
Tuning - Drop C

Intro (0:31)
F |--------------------------------------------------------|x2
C |--4-4-4--7-7-7--0-0-0-0-0-0-----------------------------|x2
G |--------------------------------------------------------|x2
C |--------------------------------------------------------|x2

F |--------------------------------------------------------|x2
C |--------------------------------------------------------|x2
G |--------------------------------------------------------|x2
C |--44444444-77777777--0000000000000000-------------------|x2


Verse 1         Part 1
F |--------------------------------------------------------|x2
C |------------------------0-------------------------------|x2
G |-----4-2-0--0-0---4-2-0---------------------------------|x2
C |-4-4-----------------------0-0-0-0-0-2------------------|x2
        Part 2
F |---------------------------------------------------------|x2
C |---------------------------------------------------------|x2
G |---4--44-----7--77-----0--00----0--00--------------------|x2
C |-44-44--4--77-77--7--00-00--0-00-00--0-------------------|x2

Chorus
F |--------------------------------------------------------|x2
C |--------------------------------------------------------|x2
G |--------------------------------------------------------|x2
C |--44444444-77777777--0000000000000000-------------------|x2

Pre-verse
F |--------------------------------------------------------|
C |--------------------------------------------------------|
G |--------------0-----0--00----------------0----0--00-----|
C |-4~---7~---0~---0000-00--0---4~---7/11-0--0000-00--0----|

Verse 2 Part 1
F |------------------------------------------------------|x2
C |------4-------4---------------------------------------|x2
G |---4-4-----4-4------0-01----0-01----------------------|x2
C |-44-4----44-4-----00-0----00-0------------------------|x2

         Part 2
F |---------------------------------------------------------|x2
C |---------------------------------------------------------|x2
G |---4--44-----7--77-----0--00----0--00--------------------|x2
C |-44-44--4--77-77--7--00-00--0-00-00--0-------------------|x2

                                                               
Chorus x2

Chorus Alternative
F |--------------------------------------------------------|x2
C |--------------------------------------------------------|x2
G |--------------------------------------------------------|x2
C |--4444-7777-0000-0000-----------------------------------|x2

Bridge
F |---------------|x4
C |---------------|x4
G |---------------|x4
C |--4~--7~--0~---|x4

F |-------------------------------------|x2
C |-------------------------------------|x2
G |--4-4-4-4-7-7-7-7-0-0-0-0-0-0-0-0----|x2
C |-4-4-4-4-7-7-7-7-0-0-0-0-0-0-0-0-----|x2
        

F |--------------------------------------------------------|x2
C |--------------------------------------------------------|x2
G |--------------------------------------------------------|x2
C |--4444~-7777~-0000~-0000~-------------------------------|x2

Chorus x2
Chorus Alt. x2

Outro
F |------------------------------------------------------|x2
C |------------------------------------------------------|x2
G |------------------------------------------------------|x2
C |--4444--4444--4444--4444--4-4-4-4~--------------------|x2
comments
We did not receive enough feedback on this tab! Please rate:
print report bad tab
1 2 3 4 5
I want to post or [tab]
guest
You may want to rate the tab now too:
select rating
Please do not post tabs as comments. Select "correction" instead!