Oops, an error
Loading. Please wait.

It Could Be A Good Excuse Bass Tab

130 views 1 this week
no commentswrite comment
1 2 3 4 5
please rate
add to favorites
launch autoscroll
font size
0
reset
guitar tuner
Tab Pro tools
  • play this tab
  • loop segment
  • change instrument
  • show fretboard
  • metronome
Autoscroll
slow
fast
+/-
esc
set tempo
stop
Contributor
Difficulty
novice
The Used-it could be a good excuse

intro

G ---
D ---
A ---
E 2-2

Main

G ---------------------|
D -------------------5-|
A --------------2s455--|
E 22-222-233-33--------|

2nd
G -----------|
D -----------|
A -----------|
E 22-222-2223

Main x1
2nd x1
main x1
2nd x1
main x1
2nd x2
main x1
2nd x1
main x1
2nd x2

chorus

G ------------|
D ------------|
A ------------|
E 222-2-222333   x4

Then

G --------|
D --------|
A 0-00-444
E --------    x8

Then

G ------------|
D ------------|
A 0-0-0-------|
E ------3-3-3-|

Main x1
2nd x1
main x1
2nd x2

bass solo

G ---------------|
D ----------2----|
A ------3p53-----|
E 55~55~---------|   x4

Then

G ----------------|
D --------------2-|
A 022222022222-3-
E --------------- x8

Chorus x4


little guitar solo

Outro

G --------------|
D --------------|
A ----4p5p4-----|
E 5-55----------|    x8

Then

G --
D --
A --
E 55
comments
We did not receive enough feedback on this tab! Please rate:
print report bad tab
1 2 3 4 5
I want to post or [tab]
guest
You may want to rate the tab now too:
select rating
Please do not post tabs as comments. Select "correction" instead!