Oops, an error
Loading. Please wait.

Let It Bleed Bass Tab

version 1
version 1

Whole song

Interactive

5,770 views 16 this week
5 commentsread comments
1 2 3 4 5
excellent!
x 4
add to favorites
launch autoscroll
font size
0
reset
guitar tuner
Tab Pro tools
  • play this tab
  • loop segment
  • change instrument
  • show fretboard
  • metronome
×
Best way to learn
"Let It Bleed"
Autoscroll
slow
fast
+/-
esc
set tempo
stop
Verse

G----------------------------------------------------|
D--------------------------------1-0---------1-0-----|
A---------------1-1-1--1-1---3-3------1--3-3-----1---|
E--4-4-4-4--4-4--------------------------------------|

This poison's my intoxication/I broke the needle off in my skin


G--------------------------------3--------------------|
D-----------------------------------1-0-------1-0-----|
A---------------1-1-1--1-1---3-3----------3-3-----1---|
E--4-4-4-4--4-4---------------------------------------|

Picked the scabs and picked the bleeding/And assumed that it was all in vain

G-----------------------------------------------------|
D--------------------------------------------1-0------|
A---------------1-1-1--1-1--3-3-3---1-1-3-3------1----|
E--4-4-4-4--4-4---------------------------------------|

A positive scab thats never healing/Calloused hit me in the face

G-------------------------------------------------------------------------|
D----------------------------------3-3-3-1-1-1-0-0-0----------1-0---------|
A------------------1-1-1-1-1-1-1-1-------------------3-3-3--------1-------|
E--4-4-4-4-4-4-4-4--------------------------------------------------------|


A burning bridge thats so misleading/Poisons more potent now with the flame

Chorus

G-----------------------------------------------------------------|
D-----------------------------0--------------1------------1-------|
A------------3--------1-1-1-1---1----3-3-3-3---3--3-3-3-3---3-----|
E--4-4-4-4-----4--------------------------------------------------| x2


Let it bleed/And take the red for what it's worth woah
Watch the fire/Fill your lungs with smoke for the last time


G----------------------------------------------------------------------|
D----------------------------------------------------------------------|
A---------3----------------1-------------------------------------------|
E-----4-----4----------------------------------------------------------|

	If you feel like dying you might wanna sing

Verse


G----------------------------------------------------|
D--------------------------------1-0---------1-0-----|
A---------------1-1-1--1-1---3-3------1--3-3-----1---|
E--4-4-4-4--4-4--------------------------------------|

The fire department couldnt drown the city/They didnt even try to wash it clean


G--------------------------------------------------------------------|
D--------------------------------------------------------------------|
A---------------1-1-1--1-1--3-3-3--------3-3---1---------------------|
E--4-4-4-4--4-4------------------------------------------------------|

And what did you think that I was sober/They put me out cos I'm on fuckin fire

G-----------------------------------------------------|
D--------------------------------------------1-0------|
A---------------1-1-1--1-1--3-3-3---1-1-3-3------1----|
E--4-4-4-4--4-4---------------------------------------|

A positive scab thats never healing/Regret that I kept this clean

G------------------------------------------------------------|
D------------------------------------------------------------|
A------------------1-1-1-1-1-1-1-1---------------------------|
E--4-4-4-4-4-4-4-4-------------------------------------------|

The most that I can do for you is keep on lying


G-----------------------------------------------------|
D-----5-----3-----1------0---1-0----------------------|
A--------------------------------1--------------------|
E-----------------------------------------------------|

Its not a lie if you can let it sing


Chorus

G-----------------------------------------------------------------|
D-----------------------------0--------------1------------1-------|
A------------3--------1-1-1-1---1----3-3-3-3---3--3-3-3-3---3-----|
E--4-4-4-4-----4--------------------------------------------------| x2


Let it bleed/And take the red for what it's worth woah
Watch the fire/Fill your lungs with smoke for the last time


G------------------------------------------------------------------|
D------------------------------------------------------------------|
A----------3---------------1---------------------------------------|
E-----4------4-----------------------------------------------------|

	If you feel like dying you might wanna sing

The bassist must have some funky tuning cos when Bert starts going nuts I think he 
hitting a low C
But oh well i've tabbed it in standard now so there u go
comments
print report bad tab
5 comments total. Showing first comments.
0 reply
bass_man_dan wrote on September 11 2005, 12:00 am

yeh ur rite abt the 'funky tuning' its in drop c tuning
gr8 tab tho

0 reply
f1f2 wrote on August 5 2006, 07:58 am

yeh but if your playing bass u don't need to change the tuning,, the standard should work fine ;p

0 reply
ThreeHits wrote on September 17 2006, 07:55 pm

Jeph plays with a five string bass, i think

I want to post or [tab]
guest
You may want to rate the tab now too:
select rating
Please do not post tabs as comments. Select "correction" instead!