Oops, an error
Loading. Please wait.

Let It Bleed Bass Tab

version 3
version 3

Whole song

Interactive

844 views 6 this week
no commentswrite comment
1 2 3 4 5
please rate
add to favorites
launch autoscroll
font size
0
reset
guitar tuner
Tab Pro tools
  • play this tab
  • loop segment
  • change instrument
  • show fretboard
  • metronome
×
Best way to learn
"Let It Bleed"
Autoscroll
slow
fast
+/-
esc
set tempo
stop
Contributor
Difficulty
Tuning
advanced
C G C F A D
guitar intro


verse
F|----------x3----------------|------------------------------------|
C|-----------------------------|-----------5-3-2-------------------|
B|1111-1133-3355-8p7p5|1111-11333-------3-8p7p5--------------------|
C|-----------------------------|-----------------------------------|

chorus
F|----------------------------------------------------|
C|----------------------------------------------------|
B|1-1-1-3333------------------------------------------|
C|-----------00h5p0h2h300h5p0h2h33p2p0----------------|

verse
F|----------x3----------------|------------------------------------|
C|-----------------------------|-----------5-3-2-------------------|
B|1111-1133-3355-8p7p5|1111-11333-------3-8p7p5--------------------|
C|-----------------------------|-----------------------------------|

chorus
F|------------------------------------|
C|------------------------------------|
B|1-1-1-3333--------------------------|
C|-----------00h5p0h2h300h5p0h2h33p2p0|

bridge
F|--------------------------------------------------|-------------------------------|
C|--------------------------------------------------|-------------------------------|
B|--------------------------------------------------|555555555555505055555555------5|
C|-0-------0-0-0-0-0-0-0-0-0-0-0-0-0h12-0h10-0h8-0h7|-------------------------0-3-5 |

Verse
F|-----------------------------|-----------5-7----|
C|-----------------------------|------------------|
B|1111-11333-355-8p7p5|    -355-35----------------|
C|-----------------------------|------------------|

F|------------------------------|-----------|
C|------------------------------|-----------|
B|1111-1133---355-8p7p5|--1-33--------------|
C|------------------------------|-----------|
chorus
F|--------------------------------------------------|-----------------|
C|--------------------------------------------------|-----------------|
B|1-1-1-3333------------------------------------|11111111-3-----------|
C|-----------00h5p0h2h300h5p0h2h33p2p0|-------------------------------|

Outro
F|-----5x----------|
C|-----------------|
B|12-8-10-5--------|
C|-----------------|
comments
We did not receive enough feedback on this tab! Please rate:
print report bad tab
1 2 3 4 5
I want to post or [tab]
guest
You may want to rate the tab now too:
select rating
Please do not post tabs as comments. Select "correction" instead!