Oops, an error
Loading. Please wait.

Liar Liar Burn In Hell Bass Tab

version 1
version 1

Whole song

Interactive

4,347 views 3 this week
1 commentread comment
1 2 3 4 5
excellent!
x 3
add to favorites
launch autoscroll
font size
0
reset
guitar tuner
Tab Pro tools
  • play this tab
  • loop segment
  • change instrument
  • show fretboard
  • metronome
Autoscroll
slow
fast
+/-
esc
set tempo
stop
Contributor
Song:Liar Liar Burn in Hell
Album:Lies for the Liars
Artist:The Used
Date Tabbed:May,2006
Guitar Tabber:Ryan Manongdo/17/m/Montalban Rizal
              no_falter0x@yahoo.com(Friendster&YM)
              
For your questions or suggestions,just PM or Text me!!
Please Rate...

Notes:Watch out for the bass lines...listen to the song well.You must use bass guitar
      in trying this tab.Acoustic or Electric gtr. is not accurate...

Gtr.Legends:
/ - slide
h - hammer-on
. - palm muting
~ - let it ring

Gtr.Tuning:Drop D(Alternative)

Intro prt.1
G|----------------------------------------------------|
D|----------------------------------------------------|
A|----------------------------------------------------|
D|-4/11~----11-11-11-11-11-11-11-11-11---11-9-7-9-5---|
            .  .  .  .  .  .  .  .  . 

Intro prt.2
G|--------------------------      -------------|
D|-------------------------- 3x   -------------|
A|---------------6666-77-99- Then -------------|
D|-1111-9-11-9-7------------      -4444-7777---|

Verse:Liar, liar, pants on fire...
G|------------------------------------------------------|
D|------------------------------------------------------|
A|-444444444444444-----------444444444-4-6-7-9-444444---|
D|-----------------7777-4444----------------------------|

Pre-Chorus:you will burn in hell...
G|---------------------------------|
D|---------------------------------|
A|--------6h7-6h7------------------|
D|-777777---------9999999~--1111---|

Chorus:Liar! Liar! Pants on fire...
G|-------------------------|
D|-------------------------| 2x
A|-44444-00000------3333---|
D|-------------2222--------|

Pre-Verse 2:
G|-----------------|
D|-----------------|
A|-4444444444444---|
D|-----------------|

Verse 2:Liar! Liar! house of fire...
                Bass Enters
G|----------------------6666666666----|
D|-No-Bass----------------------------|
A|------------------------------------|
D|------------------------------------|

Repeat Pre-Chorus:

Repeat Chorus:

Bridge:
G|---------------------------------------------------------------------------------------------------------------|
D|--------------------------------2------------------------------------------------------------------------------|
A|-44--2-44---2-44---2-4444-2-4-5---4----------------------------------------------------------------------------|
D|--------------------------------------6-7~--6-7~--6-7~--6-77----9--1111/---9--1111/---9--1111/--9-1111111111---|

You will burn in hell...
G|------------------------|
D|------------------------|
A|------------------------|
D|-777777-999999---1111---|

Repeat Chorus:

Outro Chorus:
G|----11-9-----11-9--------|
D|-11-------11-------11/---|
A|-------------------------|
D|-------------------------|

G|---------------22----------------------------------------------------|
D|------------4-----2-4-2----------------------------------------------|
A|-4444-4-6-7-------------4-2-------3333----444444-000000-------3333---|
D|-----------------------------2222------------------------2222--------|

G|--------------------------------------------|
D|--------------------------------------------|
A|-444444444444444444444444--2-4-0-2-0---4~---|
D|-------------------------------------5------|

End...

comments
We did not receive enough feedback on this tab! Please rate:
print report bad tab
1 2 3 4 5
1 comment total.
+1 reply
kmetal7 wrote on September 19 2007, 12:04 am

these song tab works like a charm thanks

I want to post or [tab]
guest
You may want to rate the tab now too:
select rating
Please do not post tabs as comments. Select "correction" instead!