Oops, an error
Loading. Please wait.

Listening Bass Tab

version 1
version 1

Whole song

Interactive

1,259 views 3 this week
no commentswrite comment
1 2 3 4 5
please rate
add to favorites
launch autoscroll
font size
0
reset
guitar tuner
Tab Pro tools
  • play this tab
  • loop segment
  • change instrument
  • show fretboard
  • metronome
×
Best way to learn
"Listening"
Autoscroll
slow
fast
+/-
esc
set tempo
stop
Contributor
Difficulty
intermediate
Tabbed By : Xcrimson_ghostX
e-mail : skawful27@aim.com

Tuning: eadg

intro
G|---------|
D|---------|
A|-0-0~----|
E|---------|
      
G|------2------2-------------------|
D|-------------------------3-------|
A|-0-00---0-00---------------------|
E|-------------2h32h3-1-11--3-333--|

G|------2-----2---------------------5p333333--|
D|--------------------------3-----------------|
A|-0-00--0-00---------------------------------|
E|--------------2h32h3-1-11---3-333-----------|

Verse
G|-----2----2-----------------|
D|------------3---------------|
A|-000--000-------------------|
E|-----------1---11111-33333--|

G|-----2-----2-------------------|
D|---------------3--------55555--|
A|-000---000---------------------|
E|-------------1---111111--------|

Pre-chorus

G|-----2----------------------------2------------------------------|
D|---2---2-------3--------5-------2---2-------3---------5----------|
A|-0-------0---3---3----5---5---0-------0---3---3-----5---5---000--|
E|-----------1------1-3-------3-----------1-------1-3-------3------|

Chorus 
G|-------------------------------|x2
D|-------------------------------|
A|-0-00--0-0-000-----------5533--|
E|----------------11-1-3-33------|
 
first chorus only
G|--------------|
D|--------------|
A|--7~----------|
E|------01--01--|

Verse 2
G|-------------------------------------------2-2-2-2---|
D|--------------------------3-3-3-3-5-5-5-5------------|
A|-----------------0-0-0-0------------------0-0-0-0----|
E|-1-1-1-1-3-3-3-3---------1-1-1-1-3-3-3-3-------------|

G|-----------------2-2-2-2--|
D|-3-3-3-3-5-5-5-5----------|
A|--------------------------|
E|--------------------------|

Chorus
G|-------------------------------| x4
D|-------------------------------|
A|-0-00--0-0-000-----------5533--|
E|----------------11-1-3-33------|

Bridge
G|-------------------------------------| x3
D|-------------------------------------|
A|-0-0-0-0-0---------------------------|
E|-----------1-1-1-1--3-3-3-3-5-5-5-5--|

Last Chorus 
G|-------------------------|
D|-------------------------|
A|-0-0-000-----------------|
E|---------1-1-11-0-0-000--|
comments
We did not receive enough feedback on this tab! Please rate:
print report bad tab
1 2 3 4 5
I want to post or [tab]
guest
You may want to rate the tab now too:
select rating
Please do not post tabs as comments. Select "correction" instead!