Oops, an error
Loading. Please wait.

Listening Bass Tab

version 2
version 2

Whole song

Interactive

1,074 views 6 this week
no commentswrite comment
1 2 3 4 5
worth learning
x 1
add to favorites
launch autoscroll
font size
0
reset
guitar tuner
Tab Pro tools
  • play this tab
  • loop segment
  • change instrument
  • show fretboard
  • metronome
Autoscroll
slow
fast
+/-
esc
set tempo
stop
Contributor
Difficulty
advanced
Listening
The Used
Bass

Intro 
G||--------|--------|
D||--------|--------|
A||--0--0--|---12/--|
D||--------|--------|
 
G||---------2---------2------------|-------------------------------|
D||--------------------------------|---------3---------------------|
A||--0--0-0----0--0-0--------------|-------------------------------|
D||----------------------4h-5-4h-5-|--3--3-3----5--5-5-5-5-5-5-5-5-|

G||---------2---------2------------|-------------------5-5-5-3-3-3-|
D||--------------------------------|---------3---------------------|
A||--0--0-0----0--0-0--------------|-------------------------------|
D||----------------------4h-5-4h-5-|--3--3-3----5--5-5-------------|

Verse 1
G||---------2---------2------------|-------------------------------|
D||--------------------------------|---------3---------------------|
A||--0--0-0----0--0-0--------------|-------------------------------|
D||----------------------4h-5-4h-5-|--3--3-3----5--5-5-5-5-5-5-5-5-|
 
G||---------2---------2------------|-------------------------------|
D||--------------------------------|---------3---------------------|
A||--0--0-0----0--0-0--------------|-------------------------------|
D||----------------------4h-5-4h-5-|--3--3-3----5--5-5-5-5-5-5-5-5-|

G||---------2---------2------------|-------------------------------|
D||--------------------------------|---------3---------------------|
A||--0--0-0----0--0-0--------------|-------------------------------|
D||----------------------4h-5-4h-5-|--3--3-3----5--5-5-5-5-5-5-5-5-|

D||---------2---------2------------|-------------------------------|
A||--------------------------------|---------3---------------------|
D||--0--0-0----0--0-0--------------|-------------------------------|
G||----------------------4h-5-4h-5-|--3--3-3----5--5-5-5-5-5-5-5-5-|

Chorus 
G||---------------------------|---------------------------|
D||---------------------------|---------------------------|
A||---------------------------|---------------------------|
D||--7--7--7--7-7--7--7--7-7--|--3--3--3--3-3--0--0--0-0--|

G||---------------------------|---------------------------|-------------------|
D||---------------------------|---------------------------|-------------------|
A||---------------------------|---------------------------|--7----------------|
D||--7--7--7--7-7--7--7--7-7--|--3--3--3--3-3--0--0--0-0--|-------------------|

Verse 2 
G||---------2---------2------------|-------------------------------|
D||--------------------------------|---------3---------------------|
A||--0--0-0----0--0-0--------------|-------------------------------|
D||----------------------4h-5-4h-5-|--3--3-3----5--5-5-5-5-5-5-5-5-|
 
G||---------2---------2------------|-------------------------------|
D||--------------------------------|---------3---------------------|
A||--0--0-0----0--0-0--------------|-------------------------------|
D||----------------------4h-5-4h-5-|--3--3-3----5--5-5-5-5-5-5-5-5-|

G||---------2---------2------------|-------------------------------|
D||--------------------------------|---------3---------------------|
A||--0--0-0----0--0-0--------------|-------------------------------|
D||----------------------4h-5-4h-5-|--3--3-3----5--5-5-5-5-5-5-5-5-|

D||---------2---------2------------|-------------------------------|
A||--------------------------------|---------3---------------------|
D||--0--0-0----0--0-0--------------|-------------------------------|
G||----------------------4h-5-4h-5-|--3--3-3----5--5-5-5-5-5-5-5-5-|

Chorus 
G||---------------------------|---------------------------|
D||---------------------------|---------------------------|
A||---------------------------|---------------------------|
D||--7--7--7--7-7--7--7--7-7--|--3--3--3--3-3--0--0--0-0--|

G||---------------------------|---------------------------|-------------------|
D||---------------------------|---------------------------|-------------------|
A||---------------------------|---------------------------|--7----------------|
D||--7--7--7--7-7--7--7--7-7--|--3--3--3--3-3--0--0--0-0--|-------------------|

Verse 3 
G||---------2---------2------------|-------------------------------|
D||--------------------------------|---------3---------------------|
A||--0--0-0----0--0-0--------------|-------------------------------|
D||----------------------4h-5-4h-5-|--3--3-3----5--5-5-5-5-5-5-5-5-|
 
G||---------2---------2------------|-------------------------------|
D||--------------------------------|---------3---------------------|
A||--0--0-0----0--0-0--------------|-------------------------------|
D||----------------------4h-5-4h-5-|--3--3-3----5--5-5-5-5-5-5-5-5-|

G||---------2---------2------------|-------------------------------|
D||--------------------------------|---------3---------------------|
A||--0--0-0----0--0-0--------------|-------------------------------|
D||----------------------4h-5-4h-5-|--3--3-3----5--5-5-5-5-5-5-5-5-|

D||---------2---------2------------|-------------------------------|
A||--------------------------------|---------3---------------------|
D||--0--0-0----0--0-0--------------|-------------------------------|
G||----------------------4h-5-4h-5-|--3--3-3----5--5-5-5-5-5-5-5-5-|

Chorus
G||---------------------------|---------------------------|
D||---------------------------|---------------------------|
A||---------------------------|---------------------------|
D||--7--7--7--7-7--7--7--7-7--|--3--3--3--3-3--0--0--0-0--|

G||---------------------------|---------------------------|
D||---------------------------|---------------------------|
A||---------------------------|---------------------------|
D||--7--7--7--7-7--7--7--7-7--|--3--3--3--3-3--0--0--0-0--|

G||---------------------------|---------------------------|
D||---------------------------|---------------------------|
A||---------------------------|---------------------------|
D||--7--7--7--7-7--7--7--7-7--|--3--3--3--3-3--0--0--0-0--|

G||---------------------------|---------------------------|
D||---------------------------|---------------------------|
A||---------------------------|---------------------------|
D||--7--7--7--7-7--7--7--7-7--|--3--3--3--3-3--0--0--0-0--|

Bridge
G||----------------------------------|----------------------------------|
D||----------------------------------|----------------------------------|
A||--0-0-0-0-------------------------|--0-0-0-0-------------------------|
D||----------1-1-1-1-3-3-3-3-5-5-5-5-|----------1-1-1-1-3-3-3-3-5-5-5-5-|
    
G||----------------------------------|----------------------------------|----|----|
D||----------------------------------|----------------------------------|----|----|
A||--0-0-0-0-------------------------|--0-0-0-0-------------------------|----|----|
D||----------1-1-1-1-3-3-3-3-5-5-5-5-|----------1-1-1-1-3-3-3-3-5-5-5-5-|----|----|

Verse 4 
G||---------2---------2------------|-------------------------------|
D||--------------------------------|---------3---------------------|
A||--0--0-0----0--0-0--------------|-------------------------------|
D||----------------------4h-5-4h-5-|--3--3-3----5--5-5-5-5-5-5-5-5-|
 
G||---------2---------2------------|-------------------------------|
D||--------------------------------|---------3---------------------|
A||--0--0-0----0--0-0--------------|-------------------------------|
D||----------------------4h-5-4h-5-|--3--3-3----5--5-5-5-5-5-5-5-5-|

Chorus
G||-----------------------|---------------------------|---------------------------|
D||-----------------------|---------------------------|---------------------------|
A||----------------12\----|---------------------------|---------------------------|
D||-----------------------|--7--7--7--7-7--7--7--7-7--|--3--3--3--3-3--0--0--0-0--|
 
G||---------------------------|---------------------------|
D||---------------------------|---------------------------|
A||---------------------------|---------------------------|
D||--7--7--7--7-7--7--7--7-7--|--3--3--3--3-3--0--0--0-0--|
 
Outro
G||----------------------------|----------------------------|
D||----------------------------|----------------------------|
A||----------------------------|----------------------------|
D||--7--7--7-7-7-7--7--7--7--7-|--3--3--3-3-3-3--0--0--0--0-|

G||----------------------------|----------------------------|
D||----------------------------|----------------------------|
A||----------------------------|----------------------------|
D||--7--7--7-7-7-7--7--7--7--7-|--3--3--3-3-3-3--0--0--0--0-|
 
G||----------------------------|--------------------------|
D||----------------------------|--------------------------|
A||----------------------------|--------------------------|
D||--7--7--7-7-7-7--7--7--7--7-|--3--3--3-3-3-3--0--------|
comments
We did not receive enough feedback on this tab! Please rate:
print report bad tab
1 2 3 4 5
I want to post or [tab]
guest
You may want to rate the tab now too:
select rating
Please do not post tabs as comments. Select "correction" instead!