Oops, an error
Loading. Please wait.

Listening tab

version 3
version 3

Whole song

Interactive

3,104 views 1 this week
1 commentread comment
1 2 3 4 5
1 last vote to show rating
add to favorites
×
Save as Personal and add changes to this tab that will be seen only by you. Learn more ›
×
You can save this tab as Personal to edit and correct it or add notes. All changes will be seen only by you. Learn more »
launch autoscroll
font size
0
reset
how to read this tab
guitar tuner
edit
Autoscroll
slow
fast
+/-
esc
set tempo
stop
Author
Difficulty
                                  Listening                                     


                                                                        The Used
Track 1



     S S S S S S S S S S S S S S S S    S E   S S S S S E   S S S S S S  
E||--0-0-0-0-0-0-0-0-0-0-0-0-0-0-0-0-|--0-0S--0-0-0-0-0-0S--0-0-0-0-0-0-|
B||--8-8-8-6-6-6-5-5-5-6-6-6-5-5-5-5-|--5-3S--5-5-5-5-5-3S--5-5-5-5-5-5-|
G||----------------------------------|----------------------------------|
D||----------------------------------|----------------------------------|
A||----------------------------------|----------------------------------|
D||----------------------------------|----------------------------------|


  S S S S S S S S S S S S S S S S    S S S S S S S S S S S S S S S S  
--0-0-0-0-0-0-0-0-0-0-0-0-0-0-0-0-|--0-0-0-0-0-0-0-0-0-0-0-0-0-0-0-0-|
--8-8-8-6-6-6-5-5-5-6-6-6-5-5-5-5-|--8-8-8-6-6-6-5-5-5-6-6-6-5-5-5-5-|
----------------------------------|----------------------------------|
----------------------------------|----------------------------------|
----------------------------------|----------------------------------|
----------------------------------|----------------------------------|


  S S S S S S S S S S S S S S S S    S S S S S S S S S S S S S S S S  
--0-0-0-0-0-0-0-0-0-0-0-0-0-0-0-0-|--0-0-0-0-0-0-0-0-0-0-0-0-0-0-0-0-|
--8-8-8-6-6-6-5-5-5-6-6-6-5-5-5-5-|--8-8-8-6-6-6-5-5-5-6-6-6-5-5-5-5-|
----------------------------------|----------------------------------|
----------------------------------|----------------------------------|
----------------------------------|----------------------------------|
----------------------------------|----------------------------------|


  PM PM PM PM PM PM PM PM PM PM PM PM PM PM PM PM  
  S  S  S  S  S  S  S  S  S  S  S  S  S  S  S  S   
--------------------------------------------------|
--------------------------------------------------|
--2--2--2--2--2--2--2--2--2--2--2--2--2--2--2--2--|
--2--2--2--2--2--2--2--2--2--2--2--2--2--2--2--2--|
--0--0--0--0--0--0--0--0--0--0--0--0--0--0--0--0--|
--------------------------------------------------|


  PM PM PM PM PM PM PM PM PM PM PM PM PM PM PM PM  
  S  S  S  S  S  S  S  S  S  S  S  S  S  S  S  S   
--------------------------------------------------|
--------------------------------------------------|
--------------------------------------------------|
--3--3--3--3--3--3--3--3--5--5--5--5--5--5--5--5--|
--3--3--3--3--3--3--3--3--5--5--5--5--5--5--5--5--|
--3--3--3--3--3--3--3--3--5--5--5--5--5--5--5--5--|


  PM PM PM PM PM PM PM PM PM PM PM PM PM PM PM PM  
  S  S  S  S  S  S  S  S  S  S  S  S  S  S  S  S   
--------------------------------------------------|
--------------------------------------------------|
--2--2--2--2--2--2--2--2--2--2--2--2--2--2--2--2--|
--2--2--2--2--2--2--2--2--2--2--2--2--2--2--2--2--|
--0--0--0--0--0--0--0--0--0--0--0--0--0--0--0--0--|
--------------------------------------------------|


  PM PM PM PM PM PM PM PM                                                     
  S  S  S  S  S  S  S  S  S S S S S S S S    S S S S S S S S S S S S S S S S  
------------------------------------------|--0-0-0-0-0-0-0-0-0-0-0-0-0-0-0-0-|
------------------------------------------|--8-8-8-6-6-6-5-5-5-6-6-6-5-5-5-5-|
------------------------------------------|----------------------------------|
--3--3--3--3--3--3--3--3--5-5-5-5-5-5-5-5-|----------------------------------|
--3--3--3--3--3--3--3--3--5-5-5-5-5-5-5-5-|----------------------------------|
--3--3--3--3--3--3--3--3--5-5-5-5-5-5-5-5-|----------------------------------|


  S S S S S S S S S S S S S S S S    S S S S S S S S S S S S S S S S  
--0-0-0-0-0-0-0-0-0-0-0-0-0-0-0-0-|--0-0-0-0-0-0-0-0-0-0-0-0-0-0-0-0-|
--8-8-8-6-6-6-5-5-5-6-6-6-5-5-5-5-|--8-8-8-6-6-6-5-5-5-6-6-6-5-5-5-5-|
----------------------------------|----------------------------------|
----------------------------------|----------------------------------|
----------------------------------|----------------------------------|
----------------------------------|----------------------------------|


  S S S S S S S S S S S S S S S S    E  E  E  S E  E  E  S E   
--0-0-0-0-0-0-0-0-0-0-0-0-0-0-0-0-|---------------------------|
--8-8-8-6-6-6-5-5-5-6-6-6-5-5-5-5-|---------------------------|
----------------------------------|---------------------------|
----------------------------------|--7--7--7--7-7--7--7--7-7--|
----------------------------------|--7--7--7--7-7--7--7--7-7--|
----------------------------------|--7--7--7--7-7--7--7--7-7--|


  E  E  E  S E  E  E  S E     E  E  E  S E  E  E  S E   
---------------------------|---------------------------|
---------------------------|---------------------------|
---------------------------|---------------------------|
--3--3--3--3-3--0--0--0-0--|--7--7--7--7-7--7--7--7-7--|
--3--3--3--3-3--0--0--0-0--|--7--7--7--7-7--7--7--7-7--|
--3--3--3--3-3--0--0--0-0--|--7--7--7--7-7--7--7--7-7--|


                                TH                    SH                
  E  E  E  S E  E  E  S E       W                     W                 
---------------------------|---------------------|---------------------|
---------------------------|---------------------|---------------------|
---------------------------|---------------------|--<>5----------------|
--3--3--3--3-3--0--0--0-0--|----5----------------|---------------------|
--3--3--3--3-3--0--0--0-0--|--<>7----------------|----7----------------|
--3--3--3--3-3--0--0--0-0--|---------------------|---------------------|


  PM PM PM PM PM PM PM PM PM PM PM PM PM PM PM PM  
  S  S  S  S  S  S  S  S  S  S  S  S  S  S  S  S   
--------------------------------------------------|
--------------------------------------------------|
--2--2--2--2--2--2--2--2--2--2--2--2--2--2--2--2--|
--2--2--2--2--2--2--2--2--2--2--2--2--2--2--2--2--|
--0--0--0--0--0--0--0--0--0--0--0--0--0--0--0--0--|
--------------------------------------------------|


  PM PM PM PM PM PM PM PM PM PM PM PM PM PM PM PM  
  S  S  S  S  S  S  S  S  S  S  S  S  S  S  S  S   
--------------------------------------------------|
--------------------------------------------------|
--------------------------------------------------|
--3--3--3--3--3--3--3--3--5--5--5--5--5--5--5--5--|
--3--3--3--3--3--3--3--3--5--5--5--5--5--5--5--5--|
--3--3--3--3--3--3--3--3--5--5--5--5--5--5--5--5--|


  PM PM PM PM PM PM PM PM PM PM PM PM PM PM PM PM  
  S  S  S  S  S  S  S  S  S  S  S  S  S  S  S  S   
--------------------------------------------------|
--------------------------------------------------|
--2--2--2--2--2--2--2--2--2--2--2--2--2--2--2--2--|
--2--2--2--2--2--2--2--2--2--2--2--2--2--2--2--2--|
--0--0--0--0--0--0--0--0--0--0--0--0--0--0--0--0--|
--------------------------------------------------|


  PM PM PM PM PM PM PM PM PM PM PM PM PM PM PM PM  
  S  S  S  S  S  S  S  S  S  S  S  S  S  S  S  S   
--------------------------------------------------|
--------------------------------------------------|
--------------------------------------------------|
--3--3--3--3--3--3--3--3--5--5--5--5--5--5--5--5--|
--3--3--3--3--3--3--3--3--5--5--5--5--5--5--5--5--|
--3--3--3--3--3--3--3--3--5--5--5--5--5--5--5--5--|


  PM PM PM PM PM PM PM PM PM PM PM PM PM PM PM PM  
  S  S  S  S  S  S  S  S  S  S  S  S  S  S  S  S   
--------------------------------------------------|
--------------------------------------------------|
--2--2--2--2--2--2--2--2--2--2--2--2--2--2--2--2--|
--2--2--2--2--2--2--2--2--2--2--2--2--2--2--2--2--|
--0--0--0--0--0--0--0--0--0--0--0--0--0--0--0--0--|
--------------------------------------------------|


  PM PM PM PM PM PM PM PM PM PM PM PM PM PM PM PM  
  S  S  S  S  S  S  S  S  S  S  S  S  S  S  S  S   
--------------------------------------------------|
--------------------------------------------------|
--------------------------------------------------|
--3--3--3--3--3--3--3--3--5--5--5--5--5--5--5--5--|
--3--3--3--3--3--3--3--3--5--5--5--5--5--5--5--5--|
--3--3--3--3--3--3--3--3--5--5--5--5--5--5--5--5--|


  PM PM PM PM PM PM PM PM PM PM PM PM PM PM PM PM  
  S  S  S  S  S  S  S  S  S  S  S  S  S  S  S  S   
--------------------------------------------------|
--------------------------------------------------|
--2--2--2--2--2--2--2--2--2--2--2--2--2--2--2--2--|
--2--2--2--2--2--2--2--2--2--2--2--2--2--2--2--2--|
--0--0--0--0--0--0--0--0--0--0--0--0--0--0--0--0--|
--------------------------------------------------|


  PM PM PM PM PM PM PM PM PM PM PM PM PM PM PM PM                              
  S  S  S  S  S  S  S  S  S  S  S  S  S  S  S  S     E  E  E  S E  E  E  S E   
--------------------------------------------------|---------------------------|
--------------------------------------------------|---------------------------|
--------------------------------------------------|---------------------------|
--3--3--3--3--3--3--3--3--5--5--5--5--5--5--5--5--|--7--7--7--7-7--7--7--7-7--|
--3--3--3--3--3--3--3--3--5--5--5--5--5--5--5--5--|--7--7--7--7-7--7--7--7-7--|
--3--3--3--3--3--3--3--3--5--5--5--5--5--5--5--5--|--7--7--7--7-7--7--7--7-7--|


  E  E  E  S E  E  E  S E     E  E  E  S E  E  E  S E   
---------------------------|---------------------------|
---------------------------|---------------------------|
---------------------------|---------------------------|
--3--3--3--3-3--0--0--0-0--|--7--7--7--7-7--7--7--7-7--|
--3--3--3--3-3--0--0--0-0--|--7--7--7--7-7--7--7--7-7--|
--3--3--3--3-3--0--0--0-0--|--7--7--7--7-7--7--7--7-7--|


  E  E  E  S E  E  E  S E     E  E  E  S E  E  E  S E   
---------------------------|---------------------------|
---------------------------|---------------------------|
---------------------------|---------------------------|
--3--3--3--3-3--0--0--0-0--|--7--7--7--7-7--7--7--7-7--|
--3--3--3--3-3--0--0--0-0--|--7--7--7--7-7--7--7--7-7--|
--3--3--3--3-3--0--0--0-0--|--7--7--7--7-7--7--7--7-7--|


  E  E  E  S E  E  E  S E     E  E  E  S E  E  E  S E   
---------------------------|---------------------------|
---------------------------|---------------------------|
---------------------------|---------------------------|
--3--3--3--3-3--0--0--0-0--|--7--7--7--7-7--7--7--7-7--|
--3--3--3--3-3--0--0--0-0--|--7--7--7--7-7--7--7--7-7--|
--3--3--3--3-3--0--0--0-0--|--7--7--7--7-7--7--7--7-7--|


  E  E  E  S E  E  E  S E             
---------------------------|----|----|
---------------------------|----|----|
---------------------------|----|----|
--3--3--3--3-3--0--0--0-0--|----|----|
--3--3--3--3-3--0--0--0-0--|----|----|
--3--3--3--3-3--0--0--0-0--|----|----|


  PM PM PM PM PM PM PM PM PM PM PM PM PM PM PM PM  
  S  S  S  S  S  S  S  S  S  S  S  S  S  S  S  S   
--------------------------------------------------|
--------------------------------------------------|
--2--2--2--2--2--2--2--2--2--2--2--2--2--2--2--2--|
--2--2--2--2--2--2--2--2--2--2--2--2--2--2--2--2--|
--0--0--0--0--0--0--0--0--0--0--0--0--0--0--0--0--|
--------------------------------------------------|


  PM PM PM PM PM PM PM PM PM PM PM PM PM PM PM PM  
  S  S  S  S  S  S  S  S  S  S  S  S  S  S  S  S   
--------------------------------------------------|
--------------------------------------------------|
--------------------------------------------------|
--3--3--3--3--3--3--3--3--5--5--5--5--5--5--5--5--|
--3--3--3--3--3--3--3--3--5--5--5--5--5--5--5--5--|
--3--3--3--3--3--3--3--3--5--5--5--5--5--5--5--5--|


  PM PM PM PM PM PM PM PM PM PM PM PM PM PM PM PM  
  S  S  S  S  S  S  S  S  S  S  S  S  S  S  S  S   
--------------------------------------------------|
--------------------------------------------------|
--2--2--2--2--2--2--2--2--2--2--2--2--2--2--2--2--|
--2--2--2--2--2--2--2--2--2--2--2--2--2--2--2--2--|
--0--0--0--0--0--0--0--0--0--0--0--0--0--0--0--0--|
--------------------------------------------------|


  PM PM PM PM PM PM PM PM PM PM PM PM PM PM PM PM  
  S  S  S  S  S  S  S  S  S  S  S  S  S  S  S  S   
--------------------------------------------------|
--------------------------------------------------|
--------------------------------------------------|
--3--3--3--3--3--3--3--3--5--5--5--5--5--5--5--5--|
--3--3--3--3--3--3--3--3--5--5--5--5--5--5--5--5--|
--3--3--3--3--3--3--3--3--5--5--5--5--5--5--5--5--|


  PM PM PM PM PM PM PM PM PM PM PM PM PM PM PM PM  
  S  S  S  S  S  S  S  S  S  S  S  S  S  S  S  S   
--------------------------------------------------|
--------------------------------------------------|
--2--2--2--2--2--2--2--2--2--2--2--2--2--2--2--2--|
--2--2--2--2--2--2--2--2--2--2--2--2--2--2--2--2--|
--0--0--0--0--0--0--0--0--0--0--0--0--0--0--0--0--|
--------------------------------------------------|


  PM PM PM PM PM PM PM PM PM PM PM PM PM PM PM PM  
  S  S  S  S  S  S  S  S  S  S  S  S  S  S  S  S   
--------------------------------------------------|
--------------------------------------------------|
--------------------------------------------------|
--3--3--3--3--3--3--3--3--5--5--5--5--5--5--5--5--|
--3--3--3--3--3--3--3--3--5--5--5--5--5--5--5--5--|
--3--3--3--3--3--3--3--3--5--5--5--5--5--5--5--5--|


  PM PM PM PM PM PM PM PM PM PM PM PM PM PM PM PM  
  S  S  S  S  S  S  S  S  S  S  S  S  S  S  S  S   
--------------------------------------------------|
--------------------------------------------------|
--2--2--2--2--2--2--2--2--2--2--2--2--2--2--2--2--|
--2--2--2--2--2--2--2--2--2--2--2--2--2--2--2--2--|
--0--0--0--0--0--0--0--0--0--0--0--0--0--0--0--0--|
--------------------------------------------------|


  PM PM PM PM PM PM PM PM PM PM PM PM PM PM PM PM                              
  S  S  S  S  S  S  S  S  S  S  S  S  S  S  S  S     E  E  E  S E  E  E  S E   
--------------------------------------------------|---------------------------|
--------------------------------------------------|---------------------------|
--------------------------------------------------|---------------------------|
--3--3--3--3--3--3--3--3--5--5--5--5--5--5--5--5--|--7--7--7--7-7--7--7--7-7--|
--3--3--3--3--3--3--3--3--5--5--5--5--5--5--5--5--|--7--7--7--7-7--7--7--7-7--|
--3--3--3--3--3--3--3--3--5--5--5--5--5--5--5--5--|--7--7--7--7-7--7--7--7-7--|


  E  E  E  S E  E  E  S E     E  E  E  S E  E  E  S E   
---------------------------|---------------------------|
---------------------------|---------------------------|
---------------------------|---------------------------|
--3--3--3--3-3--0--0--0-0--|--7--7--7--7-7--7--7--7-7--|
--3--3--3--3-3--0--0--0-0--|--7--7--7--7-7--7--7--7-7--|
--3--3--3--3-3--0--0--0-0--|--7--7--7--7-7--7--7--7-7--|


  E  E  E  S E  E  E  S E     E  E  E  S E  E  E  S E   
---------------------------|---------------------------|
---------------------------|---------------------------|
---------------------------|---------------------------|
--3--3--3--3-3--0--0--0-0--|--7--7--7--7-7--7--7--7-7--|
--3--3--3--3-3--0--0--0-0--|--7--7--7--7-7--7--7--7-7--|
--3--3--3--3-3--0--0--0-0--|--7--7--7--7-7--7--7--7-7--|


  E  E  E  S E  E  E  S E     E  E  E  S E  E  E  S E   
---------------------------|---------------------------|
---------------------------|---------------------------|
---------------------------|---------------------------|
--3--3--3--3-3--0--0--0-0--|--7--7--7--7-7--7--7--7-7--|
--3--3--3--3-3--0--0--0-0--|--7--7--7--7-7--7--7--7-7--|
--3--3--3--3-3--0--0--0-0--|--7--7--7--7-7--7--7--7-7--|


  E  E  E  S E  E  E  S E                         
---------------------------|-----|-----|----|----|
---------------------------|-----|-----|----|----|
---------------------------|-----|-----|----|----|
--3--3--3--3-3--0--0--0-0--|-----|-----|----|----|
--3--3--3--3-3--0--0--0-0--|-----|-----|----|----|
--3--3--3--3-3--0--0--0-0--|-----|-----|----|----|


   Q      Q      Q      Q         Q      Q      Q      Q      
--(0)----(0)----(0)----(0)----|--(0)----(0)----(0)----(0)----|
--(3)----(3)----(3)----(3)----|--(5)----(5)----(5)----(5)----|
------------------------------|------------------------------|
------------------------------|------------------------------|
------------------------------|------------------------------|
------------------------------|------------------------------|


  PM PM PM PM PM PM PM PM PM PM PM PM PM PM PM PM  
  S  S  S  S  S  S  S  S  S  S  S  S  S  S  S  S   
--------------------------------------------------|
--------------------------------------------------|
--2--2--2--2--2--2--2--2--2--2--2--2--2--2--2--2--|
--2--2--2--2--2--2--2--2--2--2--2--2--2--2--2--2--|
--0--0--0--0--0--0--0--0--0--0--0--0--0--0--0--0--|
--------------------------------------------------|


  PM PM PM PM PM PM PM PM PM PM PM PM PM PM PM PM  
  S  S  S  S  S  S  S  S  S  S  S  S  S  S  S  S   
--------------------------------------------------|
--------------------------------------------------|
--------------------------------------------------|
--3--3--3--3--3--3--3--3--5--5--5--5--5--5--5--5--|
--3--3--3--3--3--3--3--3--5--5--5--5--5--5--5--5--|
--3--3--3--3--3--3--3--3--5--5--5--5--5--5--5--5--|


  PM PM PM PM PM PM PM PM PM PM PM PM PM PM PM PM  
  S  S  S  S  S  S  S  S  S  S  S  S  S  S  S  S   
--------------------------------------------------|
--------------------------------------------------|
--2--2--2--2--2--2--2--2--2--2--2--2--2--2--2--2--|
--2--2--2--2--2--2--2--2--2--2--2--2--2--2--2--2--|
--0--0--0--0--0--0--0--0--0--0--0--0--0--0--0--0--|
--------------------------------------------------|


  PM PM PM PM PM PM PM PM PM PM PM PM PM PM PM PM          
  S  S  S  S  S  S  S  S  S  S  S  S  S  S  S  S           
--------------------------------------------------|-------|
--------------------------------------------------|-------|
--------------------------------------------------|-------|
--3--3--3--3--3--3--3--3--5--5--5--5--5--5--5--5--|-------|
--3--3--3--3--3--3--3--3--5--5--5--5--5--5--5--5--|-------|
--3--3--3--3--3--3--3--3--5--5--5--5--5--5--5--5--|-------|


  E  E  E  S E  E  E  S E     E  E  E  S E  E  E  S E   
---------------------------|---------------------------|
---------------------------|---------------------------|
---------------------------|---------------------------|
--7--7--7--7-7--7--7--7-7--|--3--3--3--3-3--0--0--0-0--|
--7--7--7--7-7--7--7--7-7--|--3--3--3--3-3--0--0--0-0--|
--7--7--7--7-7--7--7--7-7--|--3--3--3--3-3--0--0--0-0--|


  E  E  E  S E  E  E  S E     E  E  E  S E  E  E  S E   
---------------------------|---------------------------|
---------------------------|---------------------------|
---------------------------|---------------------------|
--7--7--7--7-7--7--7--7-7--|--3--3--3--3-3--0--0--0-0--|
--7--7--7--7-7--7--7--7-7--|--3--3--3--3-3--0--0--0-0--|
--7--7--7--7-7--7--7--7-7--|--3--3--3--3-3--0--0--0-0--|


  E  E  S S S E  E  E  E  S    E  E  S S S E  E  E  E  S  
----------------------------|----------------------------|
----------------------------|----------------------------|
----------------------------|----------------------------|
--7--7--7-7-7-7--7--7--7--7-|--3--3--3-3-3-3--0--0--0--0-|
--7--7--7-7-7-7--7--7--7--7-|--3--3--3-3-3-3--0--0--0--0-|
--7--7--7-7-7-7--7--7--7--7-|--3--3--3-3-3-3--0--0--0--0-|


  E  E  S S S E  E  E  E  S    E  E  S S S E  E  E  E  S  
----------------------------|----------------------------|
----------------------------|----------------------------|
----------------------------|----------------------------|
--7--7--7-7-7-7--7--7--7--7-|--3--3--3-3-3-3--0--0--0--0-|
--7--7--7-7-7-7--7--7--7--7-|--3--3--3-3-3-3--0--0--0--0-|
--7--7--7-7-7-7--7--7--7--7-|--3--3--3-3-3-3--0--0--0--0-|


  E  E  S S S E  E  E  E  S    E  E  S S S E  Q.     S   
----------------------------|--------------------------||
----------------------------|--------------------------||
----------------------------|--------------------------||
--7--7--7-7-7-7--7--7--7--7-|--3--3--3-3-3-3--0------L-||
--7--7--7-7-7-7--7--7--7--7-|--3--3--3-3-3-3--0------L-||
--7--7--7-7-7-7--7--7--7--7-|--3--3--3-3-3-3--0------L-||




Duration Legend
---------------
W - whole
H - half
Q - quarter
E - 8th
S - 16th
T - 32nd
X - 64th
. - note dotted
|-n-|  - n-tuplets


Tablature Legend
----------------
L - tied note
x - dead note
g - grace note
(n) - ghost note
> - accentuded note
NH - natural harmonic
AH - artificial harmonic
TH - tapped harmonic
SH - semi harmonic
PH - pitch harmonic
h - hammer on
p - pull off
b - bend
br - bendRelease
pb - preBend
pbr - preBendRelease
brb - bendReleaseBend
\n/ - tremolo bar dip
\n - tremolo bar dive
-/n - tremolo bar Release up
/n\ - tremolo bar inverted dip
/n - tremolo bar return
-\n - tremolo bar Release down
S - shift slide
s - legato slide
/ -  slide into from below or out of upwards
\ -  slide into from above or out of downwards
~ - vibrato
W - wide vibrato
tr - trill
TP - tremolo picking
T - tapping
S - slap
P - pop
< - fade in
^ - brush up
v - brush down

            
            
Suggest correction
Creating personal tab
Creating personal tab
You can edit any tab online and save it as your Personal.

You can edit, replace or remove any tab part or add personal notes – all changes will be seen only by you.

Personal tabs can be accessed anytime from any device, even offline.
Learn more »
Give kudos to tab author, rate the tab!
1 2 3 4 5
comments
print report bad tab
1 comment total.
+1 reply
Taiwanboy 10 Oct 21, 2010 03:30 PM

too many notations and not enough time indications!! lol at least bits of the lyrics so we can tell where the hell any of this is at

guest
You may want to rate the tab now too:
select rating
Wanna post a correction for this tab? Suggest correction