Oops, an error
Loading. Please wait.

Lunacy Fringe Bass Tab

version 1
version 1

Whole song

2,117 views 1 this week
5 commentsread comments
1 2 3 4 5
accurate
x 5
add to favorites
launch autoscroll
font size
0
reset
guitar tuner
Tab Pro tools
  • play this tab
  • loop segment
  • change instrument
  • show fretboard
  • metronome
×
Best way to learn
"Lunacy Fringe"
Autoscroll
slow
fast
+/-
esc
set tempo
stop
Contributor
++++++++++++++++++++++++++
|The Used- Lunacy Fringe |
++++++++++++++++++++++++++

Tuning: EADG

Intro.   x2
1.
|--------------------------------|
|--------------------------------|
|----------6-4-2-4--------2-1--1-|
|-4-4----4----------4-4--4---2---|

Verse
"Never thought you'de make me break me.."
2.
|----------------------------------|
|----------------------------------|
|-2------------2--------6-4-2-4----|
|--4x---4-0x----4x----4------------|

Pre-Chorus
"And will your love keep me burning.."
3.
|-------------------|-------------------|
|-------------------|-------------------|
|-------------------|-------------------|
|-54x-422x-21x-1-0x-|-54x-422x-21x-1-0~-|

Chorus
"I'm so far gone now.."
4.
|---------------------------------|
|---------------------------------|
|-2-2-2-2-4-4-4-4-----------------|
|-----------------0-0-0-0-0-0-0-0-|

5.
|---------------------------------|
|---------------------------------|
|-2-2-2-2-4-4-4-4--------------2~-|
|-----------------00~-----0~------|

Outro.
6.
|--------------------------------|
|--------------------------------|
|----------6-4-2-4---------2-1-1-|
|-4-4----4-----------4-4--4---2--|

Verse
"Do, do you, do you know.." x2
7.
|------------------------|
|------------------------|
|------1x--13x-2-4-2-1-4-|
|-4~--4------------------|

Pre-Chorus
"And will your love keep me burning..."
8.
|---------------------|-------------------------------|
|---------------------|----------------111111-333-555-|
|--242--124--013------|--242--124--013----------------|
|-4----2----1----0356-|-4----2----1-------------------|

Chorus
"I'm so far gone now.."  x3
9.
|------------------------------|
|------------------------1-----|
|-2-2-2-2-4-4-4-4---------2----|
|----------------0-0-0-0---32--|

"I'm so far gone now.."
10.
|----------------------------------|
|----------------------------------|
|-2-2-2-2-4-4-4-4-------------2~---|
|----------------00~-------0~------|

++++++++++++++++++++++++
Lyrics

Wake up
My love
Never thought you'd make me, break me
Now I'm up from below
Such a brilliant star you are
And will your love keep burning baby
Burn a hole right through my eyes
All these short times feel like no time
I thought you ought to know

I'm so far gone now I been running on empty
I'm so far gone now
Do you wanna take me on? 

Do, Do you, Do you know?
Do you know how long I've waited?
To look up from below,
Just to find someone like you?
And will your love light burn me baby?
Burn a hole right through my heart
I think I might just trust you, maybe
But I'm not sure
I'm not sure I wanna know

I'm so far gone now I been running on empty
I'm so far gone now
Do you wanna take me on?

++++++++++++++++++++++++

RaiLeff
Underground__Dora@hotmail.com
comments
print report bad tab
5 comments total. Showing first comments.
0 reply
punk_isntemo12 wrote on March 12 2007, 04:15 am

nicely done. you missed out a bit and didnt get some of the lyrics, but great tab other wise.

0 reply
RaiLeff wrote on March 12 2007, 05:29 pm

Oh, the lyrics xD
Well thanks anyway :D

0 reply
FedEx8 wrote on April 4 2007, 11:59 pm

isn't there more tho?

I want to post or [tab]
guest
You may want to rate the tab now too:
select rating
Please do not post tabs as comments. Select "correction" instead!