Oops, an error
Loading. Please wait.

Lunacy Fringe Bass Tab

version 2
version 2

Whole song

2,471 views 1 this week
4 commentsread comments
1 2 3 4 5
excellent!
x 4
add to favorites
launch autoscroll
font size
0
reset
guitar tuner
Tab Pro tools
  • play this tab
  • loop segment
  • change instrument
  • show fretboard
  • metronome
Autoscroll
slow
fast
+/-
esc
set tempo
stop
Contributor
Difficulty
Tabbers playing skills
novice
intermediate +
+=the beat
~=let ring
/ or \=slide up or down

Intro x2
G|--------|--------|--------|4-3---3-|
D|6-6----6|--------|6-6----6|----4---|
A|--------|6-4-2-4-|--------|--------|
E|--------|--------|--------|--------|
 |+ + + + |+ + + + |+ + + + |+ + + + |

G|----|
D|6~~-| <-hold for 3 measures
A|----|
E|----|

Verse
G|--|--------|--------|--------|--------|
D|--|6------6|--------|6------6|--------|
A|-4|--------|4------4|--------|4-2-1-4-|
E|--|--------|--------|--------|--------|
 |+ |+ + + + |+ + + + |+ + + + |+ + + + |

G|--------|--------|--------|--------|
D|6------6|4------4|--------|2-2-2-2-|
A|--------|--------|4------4|--------|
E|--------|--------|--------|--------|
 |+ + + + |+ + + + |+ + + + |+ + + + |

G|--------|--------|--------|--------|
D|6------6|4------4|--------|2~------|
A|--------|--------|4------4|--------|
E|--------|--------|--------|--------|
 |+ + + + |+ + + + |+ + + + |++++++++|

Chorus
G|--------|--------|--------|-/8-----|
D|--------|--------|--------|----9-6-|
A|2-2-2-2-|4-4-4-4-|--------|--------|
E|--------|--------|0-0-0-0-|0-------|
 |+ + + + |+ + + + |+ + + + |+ + + + |

G|--------|--------|--------|--------|--------|--------|
D|--------|--------|--------|--------|--------|--------|
A|2-2-2-2-|4-4-4-4-|--------|-------2|--------|--------|
E|--------|--------|0-0~----|--------|0~------/7-------|
 |+ + + + |+ + + + |+ + + + |+ + + + |+ + + + |+ + + + |

Post-Chorus
G|--------|--------|--------|4-3---3-|
D|6-6----6|--------|6-6----6|----4---|
A|--------|6-4-2-4-|--------|--------|
E|--------|--------|--------|--------|
 |+ + + + |+ + + + |+ + + + |+ + + + |

Verse
G|--------|--------|--------|--------|--------|--------|--------|--------|
D|6------6|--------|6------6|--------|6------6|--------|6------6|--------|
A|--------|4------4|--------|4-2-1-4-|--------|4------4|--------|4-2-1-4-|
E|--------|--------|--------|--------|--------|--------|--------|--------|
 |+ + + + |+ + + + |+ + + + |+ + + + |+ + + + |+ + + + |+ + + + |+ + + + |

G|--4-6-8-|--4-6-8-|6-4-6-8-|--------|--4-6-8-|--4-6-8-|6-4-6-8-|------------|4-4-4-4--4--|
D|6-------|4-------|--------|--------|6-------|4-------|--------|2-2-2-2-2-2-|------------|
A|--------|--------|--------|7-6-7-9-|--------|--------|--------|------------|------------|
D|--------|--------|--------|--------|--------|--------|--------|------------|------------|
 |+ + + + |+ + + + |+ + + + |+ + + + |+ + + + |+ + + + |+ + + + |+  +  +  +  |+  +  +  +  |
                                                                  ^Triplets^
Chorus x3
G|--------|--------|--------|-/8-----|
D|--------|--------|--------|----9-6-|
A|2-2-2-2-|4-4-4-4-|--------|--------|
E|--------|--------|0-0-0-0-|0-------|
 |+ + + + |+ + + + |+ + + + |+ + + + |

G|--------|--------|--------|--------|--------|--------|
D|--------|--------|--------|--------|--------|--------|
A|2-2-2-2-|4-4-4-4-|--------|-------2|--------|--------|
E|--------|--------|0-0~----|--------|0~------/4-------|
 |+ + + + |+ + + + |+ + + + |+ + + + |+ + + + |+ + + + |

Bridge
G|------------|------------|------------|------------|
D|------------|------------|------------|------------|
A|------6-6-6-|4--2--------|------------|2--1-----1--|
E|------------|------4-----|------4-4-4-|------2-----|
 |+  +  +  +  |+  +  +  +  |+  +  +  +  |+  +  +  +  |

G|------------|------------|------------|------------|
D|------------|------------|------------|------------|
A|------6-6-6-|4--2--------|------------|2--1--------|
E|------------|------4-----|------4-4-4-|------2-----|
 |+  +  +  +  |+  +  +  +  |+  +  +  +  |+  +  +  +  |

G|------------|------------|------------|------------|
D|------------|------------|------------|------------|
A|------6-6-6-|4--2--------|------------|2--4-----1--|
E|------------|------4-----|------4-4-4-|------2-----|
 |+  +  +  +  |+  +  +  +  |+  +  +  +  |+  +  +  +  |

G|------------|------------|------------|------------|------------|----|
D|------------|------------|------------|------------|------------|----|
A|------6-6-6-|4--2--------|------------|4-4-4-6-6-6-|4-4-4-6-4-2-|----|
E|------------|------4-----|------4-4-4-|------------|------------|4~--|
 |+  +  +  +  |+  +  +  +  |+  +  +  +  |+  +  +  +  |+  +  +  +  |^hold for 3 measures

Verse
G|--|--------|--------|--------|--------|--------|--------|--------|--------|------------|
D|--|6------6|--------|6------6|--------|6------6|--------|6------6|--------|------------|
A|-4|--------|4------4|--------|4-2-1-4-|--------|4------4|--------|4-2-1-4-|666666666666|
E|--|--------|--------|--------|--------|--------|--------|--------|--------|------------|
 |+ |+ + + + |+ + + + |+ + + + |+ + + + |+ + + + |+ + + + |+ + + + |+ + + + |+  +  +  +  |

Chorus
G|--------|--------|--------|--------|
D|--------|--------|--------|--------|
A|2-2-2-2-|4-4-4-4-|--------|-/6-----|
E|--------|--------|0-0-0-0-|0---7-4-|
 |+ + + + |+ + + + |+ + + + |+ + + + |

G|--------|--------|--------/9-------|
D|--------|--------|--------|--9-6---|
A|2-2-2-2-|4-4-4-4-|--------|------9-|
E|--------|--------|0-0-0-0-|--------|
 |+ + + + |+ + + + |+ + + + |+ + + + |

G|--------|--------|--------|--------|
D|--------|--------|--------|--------|
A|2-2-2-2-|4-4-4-4-|--------|-/6-----|
E|--------|--------|0-0-0-0-|0---7-4-|
 |+ + + + |+ + + + |+ + + + |+ + + + |

G|--------|--------|--------|--------|--------|--8-----|--------|
D|--------|--------|--------|--------|--------|----9-6-|2-1-----|
A|2-2-2-1-|--------|--------|-------2|--------|--------|----4-2-|
E|--------|4-4-4-2-|0-0~----|--------|0~------|--------|--------|
 |+ + + + |+ + + + |+ + + + |+ + + + |+ + + + |+ + + + |+ + + + |

Outro x2
G|--------|--------|--------|4-3---3-|
D|6-6----6|--------|6-6----6|----4---|
A|--------|6-4-2-4-|--------|--------|
E|--------|--------|--------|--------|
 |+ + + + |+ + + + |+ + + + |+ + + + |

G|----|
D|6~~-|
A|----|
E|----|
comments
print report bad tab
4 comments total. Showing first comments.
0 reply
someperson wrote on May 29 2007, 05:18 pm

Its pretty good =]
Alittle high in some places, alittle low in others, but better than i could do! Good job!

0 reply
chckndmplngs wrote on May 29 2007, 05:47 pm

Also, sometimes the bass just echos the orchestra part but in the lower octave so it's hard to tell which octave it is in.

-1 reply
repsac_hoppus wrote on September 1 2007, 09:43 am

shit!

I want to post or [tab]
guest
You may want to rate the tab now too:
select rating
Please do not post tabs as comments. Select "correction" instead!