Oops, an error
Loading. Please wait.

Lunacy Fringe Bass Tab

version 3
version 3

Whole song

229 views 1 this week
2 commentsread comments
1 2 3 4 5
please rate
add to favorites
launch autoscroll
font size
0
reset
guitar tuner
Tab Pro tools
  • play this tab
  • loop segment
  • change instrument
  • show fretboard
  • metronome
×
Best way to learn
"Lunacy Fringe"
Autoscroll
slow
fast
+/-
esc
set tempo
stop
Contributor
Difficulty
intermediate
-------------------------------------------------------------------------------
			     Lunacy Fringe – the Used
-------------------------------------------------------------------------------

Tabbed By : Transmission24
e-mail: rimpkin@yahoo.com	

Tuning: Half step down
X = Pick-up note
/ = Slide up
~ = Let ring

Intro x2
G|---------------------------------------------------------------------------|
D|-----77------77------------------------------------------------------------|
A|--------85-5----8----------------------------------------------------------|
E|-------x--8----x-737-------------------------------------------------------|

Verse 1 
G|---------------------------------------------------------------------------|
D|---------------------------------------------------------------------------|
A|-----30--50--30--05325-----------------------------------------------------|
E|---------------------------------------------------------------------------|

Pre-Chorus 1 
G|---------------------------------------------------------------------------|
D|---------5--x----3-------5--x----------------------------------------------|
A|-----0--0----5--x----0--0----5--x------------------------------------------|
E|--------------------x------------1-----------------------------------------|

Chorus 1 
G|---------------------------------------------------------------------------|
D|--------------------32-----------------------------------------------------|
A|-----3333-5555--------3--3333-5555----x------------------------------------|
E|---------------1111----3-----------11--1-1/8-------------------------------|



Verse 2 
G|---------------------------------------------------------------------------|
D|---------------------------------------------------------------------------|
A|-----77-85-5--77-8----30-05-30-05325-30-05-30-05325------------------------|
E|-------x--8-----x-737------------------------------------------------------|

Pre-Chorus 2 
G|-------------0--------------02-----0---------------------------------------|
D|---------02-----02--0--02323---02-----02--0--02-333333-666-10-9-7---------|
A|-----00-3---0--3---0--3-------3---0--3---0--3------------------------------|
E|---------------------------------------------------------------------------|

Chorus 2 
G|---------------------------------------------------------------------------|
D|-----------------32--------------32--------------32------------------------|
A|-----33335555------3-33335555------3-33335555------3-33335555---x----------|
E|-------------1111---3--------1111---3--------1111---3--------11--1-1/8-----|

Bridge
G|-------------------------0---------------------4------0--------------------|
D|-----2220-----------2220----------2220--------5------------0-02-0-020------|
A|---------30-00032-2-----3--00032------30-00035---2220---000-3----3------30-|
E|-----------------3--------------3--------------------3---------------------|

Last “I’m So Far Gone…” – End 
G|-----55542220-----10-9-----------------------------------------------------|
D|-------------33-------10-----2-----77------77------77------77-----77~------|
A|---------------x--------10--3-3-------85-5----8-------85-5----8------------|
E|----------------1--------------3-----x--8----x-737---x--8----x-737---------|



comments
We did not receive enough feedback on this tab! Please rate:
print report bad tab
1 2 3 4 5
2 comments total.
0 reply
chckndmplngs wrote on June 4 2008, 03:55 pm

Have you tried playing this with the song?

I think your bass is out of tune...

0 reply
Transmission24 wrote on January 8 2009, 04:14 pm

It's tuned a half step down.

I want to post or [tab]
guest
You may want to rate the tab now too:
select rating
Please do not post tabs as comments. Select "correction" instead!