Oops, an error
Loading. Please wait.

Lunacy Fringe tab

version 3
version 3

Whole song

1,635 views 1 this week
no commentswrite comment
1 2 3 4 5
3 more votes to show rating
add to favorites
×
Save as Personal and add changes to this tab that will be seen only by you. Learn more ›
×
You can save this tab as Personal to edit and correct it or add notes. All changes will be seen only by you. Learn more »
launch autoscroll
font size
0
reset
how to read this tab
guitar tuner
edit
Autoscroll
slow
fast
+/-
esc
set tempo
stop
Author
Lunacy Fringe
The Used

tuning is half step down

gtr 1: clean electric
gtr 2: acoustic
gtr 3: very little distortion

Intro

(bass intro)

gtr 2
eb|-1-1-3-1---0-----0-1-3-1-1---0---------3~--------|
bb|---------3---1-3-----------3---1-3-----6~--------|
gb|---------------------------------------4~--------|
db|-------------------------------------------------|
ab|-------------------------------------------------|
Eb|-------------------------------------------------|

Verse 1
gtr 1
eb|-0-0-0-0--0-0-0-0----|-0-0-0-0----|-5~-----------|
bb|-1-1-1-1--6-6-6-6----|-1-1-1-1----|---6~---------|
gb|-2-2-2-2--5-5-5-5----|-2-2-2-2----|--------------|
db|-2-2-2-2--3-3-3-3-x4-|-2-2-2-2-x3-|--------------|
ab|---------------------|------------|--------------|
Eb|---------------------|------------|--------------|

eb|-0-0-0-0----|--3~--------------------------------|
bb|-1-1-1-1----|--6~--------------------------------|
gb|-2-2-2-2----|--5~--------------------------------|
db|-2-2-2-2-x3-|------------------------------------|
ab|------------|------------------------------------|
Eb|------------|------------------------------------|

gtr 2
eb|-0-0-0-0--0-0-0-0----|-0-x3-x2-x1-|-5~------------|
bb|-1-1-1-1--1-1-1-1----|-1-x3-x3-x1-|---6~----------|
gb|-2-2-2-2--2-2-2-2----|-2-x0-x2-x2-|---------------|
db|-2-2-2-2--3-3-3-3-x4-|-2-x0-x0-x3-|---------------|
ab|---------------------|---x2----x3-|---------------|
Eb|---------------------|---x3----x1-|---------------|

eb|-0-x3-x2-x1-|--1~--------------------------------|
bb|-1-x3-x3-x1-|--1~--------------------------------|
gb|-2-x0-x2-x2-|--2~--------------------------------|
db|-2-x0-x0-x3-|--3~--------------------------------|
ab|---x2----x3-|--3~--------------------------------|
Eb|---x3----x1-|--1~--------------------------------|

gtr 3
eb|------5-----------|------------------------------|
bb|--------5---------|------------------------------|
gb|----------5-------|------------------------------|
db|-7----------------|------------------------------|
ab|-you'll here when-|-------------555555-----------|
Eb|-to play that^^^--|-555555333333--------1~--(x2)-|

Chorus
gtr 2
eb|-0-1-3~-0-1-3~-0-1-3~------/3-0------------------|
bb|----------------------/3-1-----------------------|
gb|-------------------------------------------------|
db|-------------------------------------------------|
ab|-------------------------------------------------|
Eb|-------------------------------------------------|

eb|-0-1-3~-0-1-3~--1-1------10-------10----1~-------|
bb|----------------1-1----13--13---13--13--1~-------|
gb|----------------2-2--12-------12--------1~-------|
db|----------------3-3---------------------3~-------|
ab|----------------3-3---------------------3~-------|
Eb|----------------1-1---------------------1~-------|

Post Chorus
gtr 1
eb|-0-0-------------0-0-----------------------------|
bb|-1-1-------------1-1-----------------------------|
gb|-2-2-------------2-2-----------------------------|
db|-2-2-------------2-2-----------------------------|
ab|-------------------------------------------------|
Eb|-------------------------------------------------|

gtr 2
eb|------5~---------------5~------------------------|
bb|--------5~-3~-----------5~-3---------------------|
gb|------------------------------0------------------|
db|-------------------------------------------------|
ab|-------------------------------------------------|
Eb|-------------------------------------------------|

Verse 2
gtr 1
eb|-0-0-0-0--0-0-0-0--0-0-0-0---5~----5~------------|
bb|-1-1-1-1--6-6-6-6--1-1-1-1------6~---------------|
gb|-2-2-2-2--5-5-5-5--2-2-2-2-----------------------|
db|-2-2-2-2--3-3-3-3--2-2-2-2-----------------------|
ab|-------------------------------------------------|
Eb|-------------------------------------------------|

eb|-0-0-0-0--0-0-0-0--0-0-0-0--0-0-0-0--------------|
bb|-1-1-1-1--6-6-6-6--1-1-1-1--6-6-6-6--------------|
gb|-2-2-2-2--5-5-5-5--2-2-2-2--5-5-5-5--------------|
db|-2-2-2-2--3-3-3-3--2-2-2-2--3-3-3-3--------------|
ab|-------------------------------------------------|
Eb|-------------------------------------------------|

gtr 2
eb|---3-0-----------3-0-----------------------------|
bb|-------3-1-1-3-------3-1-3-----------------------|
gb|-2-------------2---------------------------------|
db|-------------------------------------------------|
ab|-------------------------------------------------|
Eb|-------------------------------------------------|

eb|---3-0-----------5-3-0-------0-1-3---------------|
bb|-------3-1-1-3---------3-1-3---------------------|
gb|---------------2---------------------------------|
db|-------------------------------------------------|
ab|-------------------------------------------------|
Eb|-------------------------------------------------|

Extended Verse
gtr 2
eb|---0-------0-------0-----0-----0-----------------|
bb|-x---3-1-x---3-1-x---3-1---3-1---3-1-------------|
gb|-------------------------------------------------|
db|-------------------------------------------------|
ab|-------------------------------------------------|
Eb|-------------------------------------------------|

eb|---0-------0-------------------------------------|
bb|-x---3-1-x---3-1---now pianos and bass lead------|
gb|------------------------into the chorus----------|
db|-------------------------------------------------|
ab|-------------------------------------------------|
Eb|-------------------------------------------------|

Repeat Chorus (play the first line twice this time)

Interlude
gtr 1
eb|-5~------5~------|-------------------------------|
bb|-5~------6~------|-now when bert starts singing--|
gb|-5~------5~------|-gtr 1 stops for the rest of---|
db|-7~------3~-(x2)-|-------the interlude-----------|
ab|-----------------|-------------------------------|
Eb|--~--------------|-------------------------------|

gtr 2 
eb|-x-8---x-x-8-8---|-x-8----x-8----x-8----x-8-x-8--|
bb|-x-5---x-x-5-5---|-x---10-x--10--x--10-----------|
gb|-----------------|-------------9------9----------|
db|-play this until-|-------------------------------|
ab|---bert starts---|-------------------------------|
Eb|-----to-sing-----|-------------------------------|

eb|-x-8----x-5---5-x-5-x-5--------0-------0---------|
bb|-x---10-x---6------------3-1-3---3-1-3---3-1-----|
gb|---------------------------------------------2---|
db|--if your lost (which you probably are)----------|
ab|---the bass plays the same part as gtr 2---------|
Eb|-----in this part with the 3's in it-------------|

short solo for gtr 3
gtr 1
eb|-0-0-0-0--0-0-0-0--------------------------------|
bb|-1-1-1-1--6-6-6-6--------------------------------|
gb|-2-2-2-2--5-5-5-5--------------------------------|
db|-2-2-2-2--3-3-3-3--x2----------------------------|
ab|-------------------------------------------------|
Eb|-------------------------------------------------|

gtr 2
eb|-0-0-0-0--0-0-0-0--------------------------------|
bb|-1-1-1-1--1-1-1-1--------------------------------|
gb|-2-2-2-2--2-2-2-2--------------------------------|
db|-2-2-2-2--3-3-3-3--x2----------------------------|
ab|-------------------------------------------------|
Eb|-------------------------------------------------|

gtr 3
eb|---------3-5-0~--0---------3-5-------------------|
bb|-3-5-3-5-------3---3-5-3-5-----3-1---------------|
gb|-------------------------------------------------|
db|-------------------------------------------------|
ab|-------------------------------------------------|
Eb|-------------------------------------------------|

Play Verse 2
Play Chorus (with the first line repeated 3 times)

Outro
gtr 1
eb|-0-0-5---------|-0-0-5--------0~-----------------|
bb|-1-1---5-------|-1-1---5------1~-----------------|
gb|-2-2-----5-----|-2-2-----5----2~-----------------|
db|-2-2-------5---|-2-2-------5--2~-----------------|
ab|------------x3-|---------------------------------|
Eb|---------------|---------------------------------|

gtr 2
eb|-----5---------|-------5-------------------------|
bb|-------5-3-----|---------5-----------------------|
gb|-----------0---|-----5---------------------------|
db|---------------|-----------5--7~-----------------|
ab|------------x3-|---------------------------------|
Eb|---------------|---------------------------------|

the end

            
            
Suggest correction
Creating personal tab
Creating personal tab
You can edit any tab online and save it as your Personal.

You can edit, replace or remove any tab part or add personal notes – all changes will be seen only by you.

Personal tabs can be accessed anytime from any device, even offline.
Learn more »
Give kudos to tab author, rate the tab!
1 2 3 4 5
comments
print report bad tab
guest
You may want to rate the tab now too:
select rating
Wanna post a correction for this tab? Suggest correction