Oops, an error
Loading. Please wait.

Maybe Memories Tab

version 1
version 1

Intro

Whole song

Interactive

1,156 views 1 this week
4 commentsread comments
1 2 3 4 5
x 3
add to favorites
launch autoscroll
font size
0
reset
how to read this tab
guitar tuner
×
Best way to learn
"Maybe Memories"
Autoscroll
slow
fast
+/-
esc
set tempo
stop
e------------------------------------------------------
b------------------------------------------------------
g------------------------------------------------------
d--2-2-2-0-2-2-2-o---2-2-2-0----------------10------12-
a--2-2-2-0-2-2-2-o---2-2-2-0----------------10------12-
d--2-2-2-0-2-2-2-o---2-2-2-0--ect...--then--10------12-
   xxxxxxxxxxxxxxxx open                   chorus

then start over, just listen and you'll get it

it's pretty easy just like all of there music
Suggest correction
Give kudos to tab author, rate the tab!
1 2 3 4 5
comments
print report bad tab
4 comments total. Showing first comments.
0 reply
guitarmaster13 40 Feb 17, 2003 07:00 PM

the chorus is like this:

----------------
----------------
---5--7---------
---5--7---------
---3--5---------
----------------
BRIDGE
-----------------------------
------------5-5-5-5-5-5-5----
-----------------------------
--2--2-0---------------------
--2--2-0---------------------
--2--2-0---------------------

---------------------------
---------------------------
---------------------------
--4/-5/-7/-4/-7/-9/-5------
--4/-5/-7/-4/-7/-9/-5------
--2/-3/-5/-2/-5/-7/-3------

clean
-------------------- -------|-------
----------8--------- ---8---|-------
---------9---------- ---7---|---7---
-----------9-------- ---5---|---7---
--------------10---- -------|---5---
-------------------- -------|-------

there u go thats the rest of it
any comments email me at player13400@msn.com

0 reply
jamie_hough 904 Apr 22, 2003 08:00 PM

yeah the intros right and so's that stuff the other guy posted above this ^^^^^^^^^^^^^^^^^^^^^^^^^^^^^^^^^^^^^
well done boys:)

0 reply
MusicDragon666 51 Feb 27, 2006 03:46 AM

it's wrong

guest
You may want to rate the tab now too:
select rating
Wanna post a correction for this tab? Suggest correction