Oops, an error
Loading. Please wait.

Moving On tab

version 1
version 1

Whole song

1,538 views 3 this week
no commentswrite comment
1 2 3 4 5
x 4
add to favorites
×
Save as Personal and add changes to this tab that will be seen only by you. Learn more ›
×
You can save this tab as Personal to edit and correct it or add notes. All changes will be seen only by you. Learn more »
launch autoscroll
font size
0
reset
how to read this tab
guitar tuner
edit
Autoscroll
slow
fast
+/-
esc
set tempo
stop
----------------------------------------------------------------------------
                                Moving On
                                The Used
----------------------------------------------------------------------------

Thank you The Used for once again for bringing spice to songs. This song keeps it
original and, most importantly, is awesome. The Guitar 2 part for the Verse might be a little
difficult for novice guitarists. Hope it helps. Enjoy!

Username: dkm817 (same on X box live)
Youtube Cover: http://www.youtube.com/watch?v=jz510mf4J1E
Email: guitardrums@rockfan.com

Guitar 1 Rhythmic     (C G C F A D)
Guitar 2 Lead         (C G C F A D)


Tab Guide...

==================================================================
(end of measures)

==================================================================
==================================================================
(end of parts)

==================================================================
==================================================================
==================================================================
(end of song)

(If there is a “continued” it is because the numbers could not
fit on 1 line.)


Intro 1

Guitar 2
D-12--12~~~~~~~~~-12--12~~~~~~~~~~~~~-12--12~~~~~-12--12~~~~~~~~~-|
A---------10~~~~~~~~~~~~~-10--8~~~~~~~~~~~~~~-8~~~~~~~~~~-8~~~~~~-|
F-----------------------------------------------------------------|
C-----------------------------------------------------------------|
G-----------------------------------------------------------------|
C-----------------------------------------------------------------|

==================================================================

Guitar 2
D-12--12~~~~~~~~~-12--12~~~~~~~~~~~~~-12--12~~~~~-12--------------|
A---------10~~~~~~~~~~~~~-10--8~~~~~~~~~~~~~~-8-------------------|
F-----------------------------------------------------------------|
C-----------------------------------------------------------------|
G-----------------------------------------------------------------|
C-----------------------------------------------------------------|

==================================================================
==================================================================


Intro 2

Guitar 1
D-----------------------------------------------------------------|
A-----------------------------------------------------------------|
F-----------------------------------------------------------------|
C-10--10--10--10--10--10--10--5---5---5---5---5---5---5---5---5---|
G-10--10--10--10--10--10--10--5---5---5---5---5---5---5---5---5---|
C-10--10--10--10--10--10--10--5---5---5---5---5---5---5---5---5---|

Guitar 2
D-12--12~~~~~~~~~-12--12~~~~~~~~~~~~~-12--12~~~~~-12--12~~~~~~~~~-|
A---------10~~~~~~~~~~~~~-10--8~~~~~~~~~~~~~~-8~~~~~~~~~~-8~~~~~~-|
F-----------------------------------------------------------------|
C-----------------------------------------------------------------|
G-----------------------------------------------------------------|
C-----------------------------------------------------------------|

==================================================================

Guitar 1
D-----------------------------------------------------------------|
A-----------------------------------------------------------------|
F-----------------------------------------------------------------|
C-7---7---7---7---7---7---7---3---3---3---3---3---3---3---3---3---|
G-7---7---7---7---7---7---7---3---3---3---3---3---3---3---3---3---|
C-7---7---7---7---7---7---7---3---3---3---3---3---3---3---3---3---|

Guitar 2
D-12--12~~~~~~~~~-12--12~~~~~~~~~~~~~-12--12~~~~~-12--12~~~~~~~~~-|
A---------10~~~~~~~~~~~~~-10--8~~~~~~~~~~~~~~-8~~~~~~~~~~-8~~~~~~-|
F-----------------------------------------------------------------|
C-----------------------------------------------------------------|
G-----------------------------------------------------------------|
C-----------------------------------------------------------------|

==================================================================

Guitar 1
D-----------------------------------------------------------------|
A-----------------------------------------------------------------|
F-----------------------------------------------------------------|
C-10--10--10--10--10--10--10--5---5---5---5---5---5---5---5---5---|
G-10--10--10--10--10--10--10--5---5---5---5---5---5---5---5---5---|
C-10--10--10--10--10--10--10--5---5---5---5---5---5---5---5---5---|

Guitar 2
D-12--12~~~~~~~~~-12--12~~~~~~~~~~~~~-12--12~~~~~-12--12~~~~~~~~~-|
A---------10~~~~~~~~~~~~~-10--8~~~~~~~~~~~~~~-8~~~~~~~~~~-8~~~~~~-|
F-----------------------------------------------------------------|
C-----------------------------------------------------------------|
G-----------------------------------------------------------------|
C-----------------------------------------------------------------|

==================================================================

Guitar 1
D-----------------------------------------------------------------|
A-----------------------------------------------------------------|
F-----------------------------------------------------------------|
C-3~~~~~~-3---3---3---3---3---3---3---3---3---3---3---3---3---3---|
G-3~~~~~~-3---3---3---3---3---3---3---3---3---3---3---3---3---3---|
C-3~~~~~~-3---3---3---3---3---3---3---3---3---3---3---3---3---3---|
Pm        .   .   .   .   .   .

Guitar 2
D-----------------------------------------------------------------
A-8~~~~~~~~~~~~~~~~~~~~~~~~~~~~~~~~~~~~~~~~~~~~~~~~~~~~~~~~~~~~~~-
F-10~~~~~~~~~~~~~~~~~~~~~~~~~~~~~~~~~~~~~~~~~~~~~~~~~~~~~~~~~~~~~-
C-----------------------------------------------------------------|
G-----------------------------------------------------------------|
C-----------------------------------------------------------------|

==================================================================


Verse 1

Guitar 2
D-----------------12--12--15--15--17----------------------12-----12-|
A-15--15--13--13--------------------------13----------13------15----|
F-------------------------------------14------14--14----------------|
C-------------------------------------------------------------------|
G-------------------------------------------------------------------|
C-------------------------------------------------------------------|

==================================================================

Guitar 2
D---------12--12-13-15--15--17--17------------------12--12--15--15--|
A-----13----------------------------15--15--13--13------------------|
F-14----------------------------------------------------------------|
C-------------------------------------------------------------------|
G-------------------------------------------------------------------|
C-------------------------------------------------------------------|

==================================================================

Guitar 2
D-----------------12--12--15--15--17----------------------12-----12-|
A-15--15--13--13--------------------------13----------13------15----|
F-------------------------------------14------14--14----------------|
C-------------------------------------------------------------------|
G-------------------------------------------------------------------|
C-------------------------------------------------------------------|

==================================================================

Guitar 2
D---------12--12-13-15--15--17--17------------------12--12--15--15--|
A-----13----------------------------15--15--13--13------------------|
F-14----------------------------------------------------------------|
C-------------------------------------------------------------------|
G-------------------------------------------------------------------|
C-------------------------------------------------------------------|

==================================================================

Guitar 1
D-8-------8-------8-------8-------8-------8-------8-------8-------|
A-10------10------10------10------10------10------10------10------|
F-9-------9-------9-------9-------9-------9-------9-------9-------|
C-7-------7-------7-------7-------7-------7-------7-------7-------|
G-----------------------------------------------------------------|
C-----------------------------------------------------------------|

Guitar 2
D-----------------12--12--15--15--17----------------------12-----12-|
A-15--15--13--13--------------------------13----------13------15----|
F-------------------------------------14------14--14----------------|
C-------------------------------------------------------------------|
G-------------------------------------------------------------------|
C-------------------------------------------------------------------|

==================================================================

Guitar 1
D-8-------8-------8-------8-------8-------8-------8-------8---8---|
A-10------10------10------10------10------10------10------10--10--|
F-9-------9-------9-------9-------9-------9-------9-------9---9---|
C-7-------7-------7-------7-------7-------7-------7-------7---7---|
G-----------------------------------------------------------------|
C-----------------------------------------------------------------|

Guitar 2
D---------12--12-13-15--15--17--17------------------12--12--15--15--|
A-----13----------------------------15--15--13--13------------------|
F-14----------------------------------------------------------------|
C-------------------------------------------------------------------|
G-------------------------------------------------------------------|
C-------------------------------------------------------------------|

==================================================================

Guitar 1
D-8-------8-------8-------8-------8-------8-------8-------8-------|
A-10------10------10------10------10------10------10------10------|
F-9-------9-------9-------9-------9-------9-------9-------9-------|
C-7-------7-------7-------7-------7-------7-------7-------7-------|
G-----------------------------------------------------------------|
C-----------------------------------------------------------------|

Guitar 2
D-----------------12--12--15--15--17----------------------12-----12-|
A-15--15--13--13--------------------------13----------13------15----|
F-------------------------------------14------14--14----------------|
C-------------------------------------------------------------------|
G-------------------------------------------------------------------|
C-------------------------------------------------------------------|

==================================================================

Guitar 1
D-----------------------------------------------------------------|
A-8---8---8---8---8---8---8---------------------------------------|
F-9---9---9---9---9---9---9-------12--12--12--12--12--12--12------|
C-10--10--10--10--10--10--10------12--12--12--12--12--12--12------|
G-10--10--10--10--10--10--10------10--10--10--10--10--10--10------|
C-----------------------------------------------------------------|

Guitar 2
D---------12--12-13-15--15--17--17------------------12--12--15--15--|
A-----13----------------------------15--15--13--13------------------|
F-14----------------------------------------------------------------|
C-------------------------------------------------------------------|
G-------------------------------------------------------------------|
C-------------------------------------------------------------------|

==================================================================


Chorus 1

Guitar 1 & 2
D-----------------------------------------------------------------|
A-----------------------------------------------------------------|
F-----------------------------------------------------------------|
C-10--10--10--10--10--10--10--10--5---5---5---5---5---5---5---5---|
G-10--10--10--10--10--10--10--10--5---5---5---5---5---5---5---5---|
C-10--10--10--10--10--10--10--10--5---5---5---5---5---5---5---5---|

==================================================================

Guitar 1
D-----------------------------------------------------------------|
A-----------------------------------------------------------------|
F-----------------------------------------------------------------|
C-7---7---7---7---7---7---7---7---3---3---3---3---3---3---3---3---|
G-7---7---7---7---7---7---7---7---3---3---3---3---3---3---3---3---|
C-7---7---7---7---7---7---7---7---3---3---3---3---3---3---3---3---|

==================================================================

Guitar 1
D-----------------------------------------------------------------|
A-----------------------------------------------------------------|
F-----------------------------------------------------------------|
C-10--10--10--10--10--10--10--10--5---5---5---5---5---5---5---5---|
G-10--10--10--10--10--10--10--10--5---5---5---5---5---5---5---5---|
C-10--10--10--10--10--10--10--10--5---5---5---5---5---5---5---5---|

==================================================================

Guitar 1 & 2
D-----------------------------------------------------------------|
A---------6~~~~~~~~~~~~~~-6~~~~~~~~~~~~~~-6~~~~~~-----------------|
F---------5~~~~~~~~~~~~~~-5~~~~~~~~~~~~~~-5~~~~~~-----------------|
C-3---3~~~~~~-3-3-3---3~~~~~~-3-3-3---3~~~~~~-3-3-x---x---x---x---|
G-3---3~~~~~~-3-3-3---3~~~~~~-3-3-3---3~~~~~~-3-3-x---x---x---x---|
C-3---3~~~~~~-3-3-3---3~~~~~~-3-3-3---3~~~~~~-3-3-x---x---x---x---|

==================================================================

Guitar 1
D-----------------------------------------------------------------|
A-----------------------------------------------------------------|
F-----------------------------------------------------------------|
C-10--10--10--10--10--10--10--10--5---5---5---5---5---5---5---5---|
G-10--10--10--10--10--10--10--10--5---5---5---5---5---5---5---5---|
C-10--10--10--10--10--10--10--10--5---5---5---5---5---5---5---5---|

Guitar 2
D-12--12~~~~~~~~~-12--12~~~~~~~~~~~~~-12--12~~~~~-12--12~~~~~~~~~-|
A---------10~~~~~~~~~~~~~-10--8~~~~~~~~~~~~~~-8~~~~~~~~~~-8~~~~~~-|
F-----------------------------------------------------------------|
C-----------------------------------------------------------------|
G-----------------------------------------------------------------|
C-----------------------------------------------------------------|

==================================================================

Guitar 1
D-----------------------------------------------------------------|
A-----------------------------------------------------------------|
F-----------------------------------------------------------------|
C-7---7---7---7---7---7---7---7---3---3---3---3---3---3---3---3---|
G-7---7---7---7---7---7---7---7---3---3---3---3---3---3---3---3---|
C-7---7---7---7---7---7---7---7---3---3---3---3---3---3---3---3---|

Guitar 2
D-12--12~~~~~~~~~-12--12~~~~~~~~~~~~~-12--12~~~~~-12--12~~~~~~~~~-|
A---------10~~~~~~~~~~~~~-10--8~~~~~~~~~~~~~~-8~~~~~~~~~~-8~~~~~~-|
F-----------------------------------------------------------------|
C-----------------------------------------------------------------|
G-----------------------------------------------------------------|
C-----------------------------------------------------------------|

==================================================================

Guitar 1
D-----------------------------------------------------------------|
A-----------------------------------------------------------------|
F-----------------------------------------------------------------|
C-10--10--10--10--10--10--10--10--5---5---5---5---5---5---5---5---|
G-10--10--10--10--10--10--10--10--5---5---5---5---5---5---5---5---|
C-10--10--10--10--10--10--10--10--5---5---5---5---5---5---5---5---|

Guitar 2
D-12--12~~~~~~~~~-12--12~~~~~~~~~~~~~-12--12~~~~~-12--12~~~~~~~~~-|
A---------10~~~~~~~~~~~~~-10--8~~~~~~~~~~~~~~-8~~~~~~~~~~-8~~~~~~-|
F-----------------------------------------------------------------|
C-----------------------------------------------------------------|
G-----------------------------------------------------------------|
C-----------------------------------------------------------------|

==================================================================

Guitar 1 & 2
D-----------------------------------------------------------------|
A---------6~~~~~~~~~~~~~~-----------------6~~~~~~~~~~~~~~-6~~~~~~-|
F---------5~~~~~~~~~~~~~~-----------------5~~~~~~~~~~~~~~-5~~~~~~-|
C-3~~~~~~~~~~~~~~~~~~~~~~~~~~~~~~~~~~~~~~~~~~~~~~~~~~~~~~~~~~~~~~-
G-3~~~~~~~~~~~~~~~~~~~~~~~~~~~~~~~~~~~~~~~~~~~~~~~~~~~~~~~~~~~~~~-
C-3~~~~~~~~~~~~~~~~~~~~~~~~~~~~~~~~~~~~~~~~~~~~~~~~~~~~~~~~~~~~~~-

==================================================================
==================================================================


Verse 2

Guitar 1 & 2
D-----------------------------------------------------------------|
A-----------------------------------------------------------------|
F-----------------------------------------------------------------|
C-----------------------------------------------------------------|
G-----------------------------------------------------------------|
C-----------------------------------------------------------------|

==================================================================


Guitar 2
D-----------------12--12--15--15--17----------------------12-----12-|
A-15--15--13--13--------------------------13----------13------15----|
F-------------------------------------14------14--14----------------|
C-------------------------------------------------------------------|
G-------------------------------------------------------------------|
C-------------------------------------------------------------------|

==================================================================

Guitar 2
D---------12--12-13-15--15--17--17------------------12--12--15--15--|
A-----13----------------------------15--15--13--13------------------|
F-14----------------------------------------------------------------|
C-------------------------------------------------------------------|
G-------------------------------------------------------------------|
C-------------------------------------------------------------------|

==================================================================

Guitar 1
D-8-------8-------8-------8---------------------------------------|
A-10------10------10------10------10------10------10------10------|
F-9-------9-------9-------9-------9-------9-------9-------9-------|
C-7-------7-------7-------7-------7-------7-------7-------7-------|
G---------------------------------8-------8-------8-------8-------|
C-----------------------------------------------------------------|

Guitar 2
D-----------------12--12--15--15--17----------------------12-----12-|
A-15--15--13--13--------------------------13----------13------15----|
F-------------------------------------14------14--14----------------|
C-------------------------------------------------------------------|
G-------------------------------------------------------------------|
C-------------------------------------------------------------------|

==================================================================

Guitar 1
D---------------------------------7-------7-------7-------7-------|
A-8-------8-------8-------8-------8-------8-------8-------8-------|
F-9-------9-------9-------9-------7-------7-------7-------7-------|
C-10------10------10------10------9-------9-------9-------9-------|
G-10------10------10------10--------------------------------------|
C-----------------------------------------------------------------|

Guitar 2
D---------12--12-13-15--15--17--17------------------12--12--15--15--|
A-----13----------------------------15--15--13--13------------------|
F-14----------------------------------------------------------------|
C-------------------------------------------------------------------|
G-------------------------------------------------------------------|
C-------------------------------------------------------------------|

==================================================================

Guitar 1
D-8-------8-------8-------8---------------------------------------|
A-10------10------10------10------10------10------10------10------|
F-9-------9-------9-------9-------9-------9-------9-------9-------|
C-7-------7-------7-------7-------7-------7-------7-------7-------|
G---------------------------------8-------8-------8-------8-------|
C-----------------------------------------------------------------|
Guitar 2
D-----------------12--12--15--15--17----------------------12-----12-|
A-15--15--13--13--------------------------13----------13------15----|
F-------------------------------------14------14--14----------------|
C-------------------------------------------------------------------|
G-------------------------------------------------------------------|
C-------------------------------------------------------------------|

==================================================================

Guitar 1
D-----------------------------------------------------------------|
A-8---8---8---8---8---8---8---------------------------------------|
F-9---9---9---9---9---9---9-------12--12--12--12--12--12--12------|
C-10--10--10--10--10--10--10------12--12--12--12--12--12--12------|
G-10--10--10--10--10--10--10------10--10--10--10--10--10--10------|
C-----------------------------------------------------------------|

Guitar 2
D---------12--12-13-15--15--17--17------------------12--12--15--15--|
A-----13----------------------------15--15--13--13------------------|
F-14----------------------------------------------------------------|
C-------------------------------------------------------------------|
G-------------------------------------------------------------------|
C-------------------------------------------------------------------|

==================================================================


Chorus 2

Guitar 1 & 2
D-----------------------------------------------------------------|
A-----------------------------------------------------------------|
F-----------------------------------------------------------------|
C-10--10--10--10--10--10--10--10--5---5---5---5---5---5---5---5---|
G-10--10--10--10--10--10--10--10--5---5---5---5---5---5---5---5---|
C-10--10--10--10--10--10--10--10--5---5---5---5---5---5---5---5---|

==================================================================

Guitar 1
D-----------------------------------------------------------------|
A-----------------------------------------------------------------|
F-----------------------------------------------------------------|
C-7---7---7---7---7---7---7---7---3---3---3---3---3---3---3---3---|
G-7---7---7---7---7---7---7---7---3---3---3---3---3---3---3---3---|
C-7---7---7---7---7---7---7---7---3---3---3---3---3---3---3---3---|

==================================================================

Guitar 1
D-----------------------------------------------------------------|
A-----------------------------------------------------------------|
F-----------------------------------------------------------------|
C-10--10--10--10--10--10--10--10--5---5---5---5---5---5---5---5---|
G-10--10--10--10--10--10--10--10--5---5---5---5---5---5---5---5---|
C-10--10--10--10--10--10--10--10--5---5---5---5---5---5---5---5---|

==================================================================

Guitar 1 & 2
D-----------------------------------------------------------------|
A---------6~~~~~~~~~~~~~~-6~~~~~~~~~~~~~~-6~~~~~~-----------------|
F---------5~~~~~~~~~~~~~~-5~~~~~~~~~~~~~~-5~~~~~~-----------------|
C-3---3~~~~~~-3-3-3---3~~~~~~-3-3-3---3~~~~~~-3-3-x---x---x---x---|
G-3---3~~~~~~-3-3-3---3~~~~~~-3-3-3---3~~~~~~-3-3-x---x---x---x---|
C-3---3~~~~~~-3-3-3---3~~~~~~-3-3-3---3~~~~~~-3-3-x---x---x---x---|

==================================================================

Guitar 1
D-----------------------------------------------------------------|
A-----------------------------------------------------------------|
F-----------------------------------------------------------------|
C-10--10--10--10--10--10--10--10--5---5---5---5---5---5---5---5---|
G-10--10--10--10--10--10--10--10--5---5---5---5---5---5---5---5---|
C-10--10--10--10--10--10--10--10--5---5---5---5---5---5---5---5---|

Guitar 2
D-12--12~~~~~~~~~-12--12~~~~~~~~~~~~~-12--12~~~~~-12--12~~~~~~~~~-|
A---------10~~~~~~~~~~~~~-10--8~~~~~~~~~~~~~~-8~~~~~~~~~~-8~~~~~~-|
F-----------------------------------------------------------------|
C-----------------------------------------------------------------|
G-----------------------------------------------------------------|
C-----------------------------------------------------------------|

==================================================================

Guitar 1
D-----------------------------------------------------------------|
A-----------------------------------------------------------------|
F-----------------------------------------------------------------|
C-7---7---7---7---7---7---7---7---3---3---3---3---3---3---3---3---|
G-7---7---7---7---7---7---7---7---3---3---3---3---3---3---3---3---|
C-7---7---7---7---7---7---7---7---3---3---3---3---3---3---3---3---|

Guitar 2
D-12--12~~~~~~~~~-12--12~~~~~~~~~~~~~-12--12~~~~~-12--12~~~~~~~~~-|
A---------10~~~~~~~~~~~~~-10--8~~~~~~~~~~~~~~-8~~~~~~~~~~-8~~~~~~-|
F-----------------------------------------------------------------|
C-----------------------------------------------------------------|
G-----------------------------------------------------------------|
C-----------------------------------------------------------------|

==================================================================

Guitar 1
D-----------------------------------------------------------------|
A-----------------------------------------------------------------|
F-----------------------------------------------------------------|
C-10--10--10--10--10--10--10--10--5---5---5---5---5---5---5---5---|
G-10--10--10--10--10--10--10--10--5---5---5---5---5---5---5---5---|
C-10--10--10--10--10--10--10--10--5---5---5---5---5---5---5---5---|

Guitar 2
D-12--12~~~~~~~~~-12--12~~~~~~~~~~~~~-12--12~~~~~-12--12~~~~~~~~~-|
A---------10~~~~~~~~~~~~~-10--8~~~~~~~~~~~~~~-8~~~~~~~~~~-8~~~~~~-|
F-----------------------------------------------------------------|
C-----------------------------------------------------------------|
G-----------------------------------------------------------------|
C-----------------------------------------------------------------|

==================================================================

Guitar 1 & 2
D-----------------------------------------------------------------|
A---------6~~~~~~~~~~~~~~-----------------6~~~~~~~~~~~~~~-6~~~~~~-|
F---------5~~~~~~~~~~~~~~-----------------5~~~~~~~~~~~~~~-5~~~~~~-|
C-3~~~~~~~~~~~~~~~~~~~~~~~~~~~~~~~~~~~~~~~~~~~~~~~~~~~~~~~~~~~~~~-|
G-3~~~~~~~~~~~~~~~~~~~~~~~~~~~~~~~~~~~~~~~~~~~~~~~~~~~~~~~~~~~~~~-|
C-3~~~~~~~~~~~~~~~~~~~~~~~~~~~~~~~~~~~~~~~~~~~~~~~~~~~~~~~~~~~~~~-|

==================================================================

Guitar 1 & 2
D-----------------------------------------------------------------|
A---------6~~~~~~~~~~~~~~-----------------6~~~~~~~~~~~~~~-6~~~~~~-|
F---------5~~~~~~~~~~~~~~-----------------5~~~~~~~~~~~~~~-5~~~~~~-|
C-3~~~~~~~~~~~~~~~~~~~~~~~~~~~~~~~~~~~~~~~~~~~~~~~~~~~~~~~~~~~~~~-|
G-3~~~~~~~~~~~~~~~~~~~~~~~~~~~~~~~~~~~~~~~~~~~~~~~~~~~~~~~~~~~~~~-|
C-3~~~~~~~~~~~~~~~~~~~~~~~~~~~~~~~~~~~~~~~~~~~~~~~~~~~~~~~~~~~~~~-|

==================================================================
==================================================================


Interlude 1

Guitar 1
D-----------------------------------------------------------------|
A-----------------------------------------------------------------|
F-----------------------------------------------------------------|
C-7~~~~~~~~~~~~~~~~~~~~~~~~~~~~~~~~~~~~~~~~~~~~~~~~~~~~~~~~~~~~~~-
G-7~~~~~~~~~~~~~~~~~~~~~~~~~~~~~~~~~~~~~~~~~~~~~~~~~~~~~~~~~~~~~~-
C-7~~~~~~~~~~~~~~~~~~~~~~~~~~~~~~~~~~~~~~~~~~~~~~~~~~~~~~~~~~~~~~-

Guitar 2
D-----------------------------------------------------------------|
A-----------------------------------------------------------------|
F-----------------------------------------------------------------|
C-7~~~~~~~~~~~~~~~~~~~~~~~~~~~~~~---------------------------------|
G-7~~~~~~~~~~~~~~~~~~~~~~~~~~~~~~---------------------------------|
C-7~~~~~~~~~~~~~~~~~~~~~~~~~~~~~~-3~~~~~~~~~~~~~-2~~~~~~~~~~~~~~~-|

==================================================================

Guitar 2
D-----------------------------------------------------------------|
A-----------------------------------------------------------------|
F-----------------------------------------------------------------|
C-----------------------------------------------------------------|
G-----------------------------------------------------------------|
C-7~~~~~~~~~~~~~~~~~~~~~~~~~~~~~~-3~~~~~~~~~~~~~-2~~~~~~~~~~~~~~~-|

==================================================================

Guitar 2
D-----------------------------------------------------------------|
A-----------------------------------------------------------------|
F-----------------------------------------------------------------|
C-7~~~~~~~~~~~~~~~~~~~~~~~~~~~~~~---------------------------------|
G-7~~~~~~~~~~~~~~~~~~~~~~~~~~~~~~---------------------------------|
C-7~~~~~~~~~~~~~~~~~~~~~~~~~~~~~~-3~~~~~~~~~~~~~-2~~~~~~~~~~~~~~~-|

==================================================================

Guitar 2
D-----------------------------------------------------------------|
A-----------------------------------------------------------------|
F-----------------------------------------------------------------|
C-----------------------------------------------------------------|
G-----------------------------------------------------------------|
C-7~~~~~~~~~~~~~~~~~~~~~~~~~~~~~~-3~~~~~~~~~~~~~-2~~~~~~~~~~~~~~~-|

==================================================================
==================================================================


Interlude 2

(x2)

Guitar 1 & 2
D-----------------------------------------------------------------|
A-----------------------------------------------------------------|
F-----------------------------------------------------------------|
C-7~~~~~~-7~~~~~~-x---x---x---7~~~~~~-7~~~~~~-7~~~~~~-7---5---5---|
G-7~~~~~~-7~~~~~~-x---x---x---7~~~~~~-7~~~~~~-7~~~~~~-7---5---5---|
C-7~~~~~~-7~~~~~~-x---x---x---7~~~~~~-7~~~~~~-7~~~~~~-7---5---5---|

==================================================================

Guitar 1 & 2
D-----------------------------------------------------------------|
A-----------------------------------------------------------------|
F-----------------------------------------------------------------|
C-3~~~~~~~~~~~~~~~~~~~~~~~~~~\2~~~~~~~~~~~~~~~~~~~~~~~~~~~~~~~~~~-
G-3~~~~~~~~~~~~~~~~~~~~~~~~~~\2~~~~~~~~~~~~~~~~~~~~~~~~~~~~~~~~~~-
C-3~~~~~~~~~~~~~~~~~~~~~~~~~~\2~~~~~~~~~~~~~~~~~~~~~~~~~~~~~~~~~~-

==================================================================
==================================================================


Interlude 3

Guitar 1 & 2
D-----------------------------------------------------------------|
A-----------------------------------------------------------------|
F-----------------------------------------------------------------|
C-----------------------------------------------------------------|
G-----------------------------------------------------------------|
C-7-7-7-7-7-7-7-7-7-7-7-7-7-7-7-7-7-7-7-7-7-7-7-7-7-7-7-7-7-7-7-7-|
Pm. . . . . . . . . . . . . . . . . . . . . . . . . . . . . . . .

==================================================================

Guitar 1 & 2
D-----------------------------------------------------------------|
A-----------------------------------------------------------------|
F-----------------------------------------------------------------|
C-----------------------------------------------------------------|
G-----------------------------------------------------------------|
C-3-3-3-3-3-3-3-3-3-3-3-3-3-3-2-2-2-2-2-2-2-2-2-2-2-2-2-2-2-2-2-2-|
Pm. . . . . . . . . . . . . . . . . . . . . . . . . . . . . . . .

==================================================================

Guitar 1 & 2
D-----------------------------------------------------------------|
A-----------------------------------------------------------------|
F-----------------------------------------------------------------|
C-----------------------------------------------------------------|
G-----------------------------------------------------------------|
C-7-7-7-7-7-7-7-7-7-7-7-7-7-7-7-7-7-7-7-7-7-7-7-7-7-7-7-7-7-7-7-7-|
Pm. . . . . . . . . . . . . . . . . . . . . . . . . . . . . . . .

==================================================================

Guitar 1 & 2
D-----------------------------------------------------------------|
A---------------------------------4---4---x-x-4---4---x-x-4---x-x-|
F---------------------------------x---x---x-x-x---x---x-x-x---x-x-|
C---------------------------------2---2---x-x-2---2---x-x-2---x-x-|
G-----------------------------------------------------------------|
C-3-3-3-3-3-3-3-3-3-3-3-3-3-3-3-3---------------------------------|
Pm. . . . . . . . . . . . . . . .

==================================================================

Guitar 1 & 2
D---------------------------------|
A-4-4-4-4~~~~~~-4-4~~~~~~-4~~~~~~-|
F-x-x-x-x-------x-x-------x-------|
C-2-2-2-2~~~~~~-2-2~~~~~~-2~~~~~~-|
G---------------------------------|
C---------------------------------|

==================================================================
==================================================================


Bridge

Guitar 1
D-------------------------------x-x\x-x/x-x\x-x-------------------|
A-10~~~~~~~~~~~~~~~~~~~~~~~~~~~-x-x\x-x/x-x\x-x-10--8-10----------|
F-----------------------------------------------------------------|
C-----------------------------------------------------------------|
G-----------------------------------------------------------------|
C-----------------------------------------------------------------|

Guitar 2
D-12--12~~~~~~~~~-12--12~~~~~~~~~~~~~-12--12~~~~~-12--12----------|
A---------10~~~~~~~~~~~~~-10--8~~~~~~~~~~~~~~-8~~~~~~~------------|
F-----------------------------------------------------------------|
C-----------------------------------------------------------------|
G-----------------------------------------------------------------|
C-----------------------------------------------------------------|

==================================================================
==================================================================


Chorus 3

Guitar 1 & 2
D-----------------------------------------------------------------|
A-----------------------------------------------------------------|
F-----------------------------------------------------------------|
C-10--10--10--10--10--10--10--10--5---5---5---5---5---5---5---5---|
G-10--10--10--10--10--10--10--10--5---5---5---5---5---5---5---5---|
C-10--10--10--10--10--10--10--10--5---5---5---5---5---5---5---5---|

==================================================================

Guitar 1
D-----------------------------------------------------------------|
A-----------------------------------------------------------------|
F-----------------------------------------------------------------|
C-7---7---7---7---7---7---7---7---3---3---3---3---3---3---3---3---|
G-7---7---7---7---7---7---7---7---3---3---3---3---3---3---3---3---|
C-7---7---7---7---7---7---7---7---3---3---3---3---3---3---3---3---|

==================================================================

Guitar 1
D-----------------------------------------------------------------|
A-----------------------------------------------------------------|
F-----------------------------------------------------------------|
C-10--10--10--10--10--10--10--10--5---5---5---5---5---5---5---5---|
G-10--10--10--10--10--10--10--10--5---5---5---5---5---5---5---5---|
C-10--10--10--10--10--10--10--10--5---5---5---5---5---5---5---5---|

==================================================================

Guitar 1 & 2
D-----------------------------------------------------------------|
A---------6~~~~~~~~~~~~~~-6~~~~~~~~~~~~~~-6~~~~~~-----------------|
F---------5~~~~~~~~~~~~~~-5~~~~~~~~~~~~~~-5~~~~~~-----------------|
C-3---3~~~~~~-3-3-3---3~~~~~~-3-3-3---3~~~~~~-3-3-x---x---x---x---|
G-3---3~~~~~~-3-3-3---3~~~~~~-3-3-3---3~~~~~~-3-3-x---x---x---x---|
C-3---3~~~~~~-3-3-3---3~~~~~~-3-3-3---3~~~~~~-3-3-x---x---x---x---|

==================================================================

Guitar 1
D-----------------------------------------------------------------|
A-----------------------------------------------------------------|
F-----------------------------------------------------------------|
C-10--10--10--10--10--10--10--10--5---5---5---5---5---5---5---5---|
G-10--10--10--10--10--10--10--10--5---5---5---5---5---5---5---5---|
C-10--10--10--10--10--10--10--10--5---5---5---5---5---5---5---5---|

Guitar 2
D-12--12~~~~~~~~~-12--12~~~~~~~~~~~~~-12--12~~~~~-12--12~~~~~~~~~-|
A---------10~~~~~~~~~~~~~-10--8~~~~~~~~~~~~~~-8~~~~~~~~~~-8~~~~~~-|
F-----------------------------------------------------------------|
C-----------------------------------------------------------------|
G-----------------------------------------------------------------|
C-----------------------------------------------------------------|

==================================================================

Guitar 1
D-----------------------------------------------------------------|
A-----------------------------------------------------------------|
F-----------------------------------------------------------------|
C-7---7---7---7---7---7---7---7---3---3---3---3---3---3---3---3---|
G-7---7---7---7---7---7---7---7---3---3---3---3---3---3---3---3---|
C-7---7---7---7---7---7---7---7---3---3---3---3---3---3---3---3---|

Guitar 2
D-12--12~~~~~~~~~-12--12~~~~~~~~~~~~~-12--12~~~~~-12--12~~~~~~~~~-|
A---------10~~~~~~~~~~~~~-10--8~~~~~~~~~~~~~~-8~~~~~~~~~~-8~~~~~~-|
F-----------------------------------------------------------------|
C-----------------------------------------------------------------|
G-----------------------------------------------------------------|
C-----------------------------------------------------------------|

==================================================================

Guitar 1
D-----------------------------------------------------------------|
A-----------------------------------------------------------------|
F-----------------------------------------------------------------|
C-10--10--10--10--10--10--10--10--5---5---5---5---5---5---5---5---|
G-10--10--10--10--10--10--10--10--5---5---5---5---5---5---5---5---|
C-10--10--10--10--10--10--10--10--5---5---5---5---5---5---5---5---|

Guitar 2
D-12--12~~~~~~~~~-12--12~~~~~~~~~~~~~-12--12~~~~~-12--12~~~~~~~~~-|
A---------10~~~~~~~~~~~~~-10--8~~~~~~~~~~~~~~-8~~~~~~~~~~-8~~~~~~-|
F-----------------------------------------------------------------|
C-----------------------------------------------------------------|
G-----------------------------------------------------------------|
C-----------------------------------------------------------------|

==================================================================

Guitar 1 & 2
D-----------------------------------------------------------------|
A---------6~~~~~~~~~~~~~~-----------------6~~~~~~~~~~~~~~-6~~~~~~-|
F---------5~~~~~~~~~~~~~~-----------------5~~~~~~~~~~~~~~-5~~~~~~-|
C-3~~~~~~~~~~~~~~~~~~~~~~~~~~~~~~~~~~~~~~~~~~~~~~~~~~~~~~~~~~~~~~-|
G-3~~~~~~~~~~~~~~~~~~~~~~~~~~~~~~~~~~~~~~~~~~~~~~~~~~~~~~~~~~~~~~-|
C-3~~~~~~~~~~~~~~~~~~~~~~~~~~~~~~~~~~~~~~~~~~~~~~~~~~~~~~~~~~~~~~-|

==================================================================

Guitar 1
D-----------------------------------------------------------------|
A-----------------------------------------------------------------|
F-----------------------------------------------------------------|
C-3~~~~~~~~~~~~~~~~~~~~~~~~~~~~~~~~~~~~~~~~~~~~~~~~~~~~~~-3~~~~~~-|
G-3~~~~~~~~~~~~~~~~~~~~~~~~~~~~~~~~~~~~~~~~~~~~~~~~~~~~~~-3~~~~~~-|
C-3~~~~~~~~~~~~~~~~~~~~~~~~~~~~~~~~~~~~~~~~~~~~~~~~~~~~~~-3~~~~~~-|


Guitar 2
D-----------------------------------------------------------------|
A---------6---------------6---------------6---------------6-------|
F---------5---------------5---------------5---------------5-------|
C-3---3-------3-3-3---3-------3-3-3---3-------3-3-3---3-------3-3-|
G-3---3-------3-3-3---3-------3-3-3---3-------3-3-3---3-------3-3-|
C-3---3-------3-3-3---3-------3-3-3---3-------3-3-3---3-------3-3-|
Pm.   .       . . .   .       . . .   .       . . .   .       . .

==================================================================

Guitar 1
D-----------------------------------------------------------------|
A-----------------------------------------------------------------|
F-----------------------------------------------------------------|
C-~~~~~~~~~~~~~~~~~~~~~~~~~~~~~~~~~~~~~~~~~~~~~~~~~~~~~~~~~~~~~~~-|
G-~~~~~~~~~~~~~~~~~~~~~~~~~~~~~~~~~~~~~~~~~~~~~~~~~~~~~~~~~~~~~~~-|
C-~~~~~~~~~~~~~~~~~~~~~~~~~~~~~~~~~~~~~~~~~~~~~~~~~~~~~~~~~~~~~~~-|


Guitar 2
D-----------------------------------------------------------------|
A---------6---------------6---------------6---------------6-------|
F---------5---------------5---------------5---------------5-------|
C-3---3-------3-3-3---3-------3-3-3---3-------3-3-3---3-------x-x-|
G-3---3-------3-3-3---3-------3-3-3---3-------3-3-3---3-------x-x-|
C-3---3-------3-3-3---3-------3-3-3---3-------3-3-3---3-------x-x-|
Pm.   .       . . .   .       . . .   .       . . .   .       . .

==================================================================
==================================================================


Outro

Guitar 1
D-----------------------------------------------------------------|
A-----------------------------------------------------------------|
F-----------------------------------------------------------------|
C-7---7---x-x-7---7---x-x-7\--x-x-7---7---x-x-7---7---x-x-7\~~~~~-|
G-7---7---x-x-7---7---x-x-7\--x-x-7---7---x-x-7---7---x-x-7\~~~~~-|
C-7---7---x-x-7---7---x-x-7\--x-x-7---7---x-x-7---7---x-x-7\~~~~~-|

Guitar 2
D-----------------------------------------------------------------|
A-----------------------------------------------------------------|
F-12--12~~~~~-12--12~~~~~-12\-------------------------------------|
C-----------------------------x-x-7---7---x-x-7---7---x-x-7\~~~~~-|
G-----------------------------x-x-7---7---x-x-7---7---x-x-7\~~~~~-|
C-----------------------------x-x-7---7---x-x-7---7---x-x-7\~~~~~-|

==================================================================
==================================================================
==================================================================


Tab Legend
h  -  hammer-on
p  -  pull-off
/  -  slide up
\  -  slide down
ps/-  pickslide up
ps\-  pickslide down
~  -  let ring
pm.-  palm mute
b  -  bend
r  -  return from bend
*  -  harmonic
x  -  dead note
^  -  Whammy bar
^\ -  Whammy bar (hold down)

That’s it! Hopefully this guitar tab has helped you play this unique song, and if you
have any problems, be sure to check out my cover for visuals. Thanks, oh and one last
thing... ROCK OUT!!!!

            
            
Suggest correction
Creating personal tab
Creating personal tab
You can edit any tab online and save it as your Personal.

You can edit, replace or remove any tab part or add personal notes – all changes will be seen only by you.

Personal tabs can be accessed anytime from any device, even offline.
Learn more »
comments
print report bad tab
guest
You may want to rate the tab now too:
select rating
Wanna post a correction for this tab? Suggest correction