Oops, an error
Loading. Please wait.
We have an official On My Own tab made by UG professional guitarists. Check out the tab »
×
48,263 views 1 this week
20 commentsread comments
1 2 3 4 5
x 23
add to favorites
×
Save as Personal and add changes to this tab that will be seen only by you. Learn more ›
×
You can save this tab as Personal to edit and correct it or add notes. All changes will be seen only by you. Learn more »
launch autoscroll
font size
0
reset
how to read this tab
guitar tuner
edit
Autoscroll
slow
fast
+/-
esc
set tempo
stop
Sup everyone umm im jono.h and I think no1’s really gotten this tab rite so yer im gonna 
it rite!!! This song has awesome guitar and im gonna tell u boys and girls how to play 
and yer getting on to the song

band-The used
song-On my own

Tuning-Dadgbe

NOTE! Ok yer you can play this song standard tuning rite just playing the same thing but 
not using the e/d string and u can still play it but it sounds BETTER in DADGBE so yer

Intro

e------0-------0--------0--------0---0----|
b------5-------5--------5--------5---5----|
g--------6---6------------6--------6------|
d—0-0--------------0-0-------0-0----------|
a—0-0--------------0-0-------0-0----------|
D-0-0--------------0-0-------0-0----------|
                                           X4
e----------------------------------------|
b--00000---0-----0-----0-----------------|
g-22222222-2-----6-66666-----------------|
d-44444444-4-----7-77777-----------------|
a-44444444-4-----7-77777-----------------|
D-44444444-4-----7-77777-----------------|

Chorus umm I think?

e------------------------------------------------------------------|
b-0----0----0----0------0----0---0----0-------0----0----0----0-----|
g-11111111111111111111--22222222222222222222--11111111111111111111-|
d-22222222222222222222--44444444444444444444--22222222222222222222-|
a-22222222222222222222--44444444444444444444—-22222222222222222222-|
D-22222222222222222222--44444444444444444444--22222222222222222222-|

Top of the world..    The things ive become.. maybe I what do I know.

verse-
e------0-------0--------0--------0---0---0-0-0-0-0----|
b------5-------5--------5--------5---5---5-5-5-5-5----|
g--------6---6------------6--------6-----6-6-6-6-6----| x2
d—0-0--------------0-0-------0-0---------0-0-0-0-0----|
a—0-0--------------0-0-------0-0---------0-0-0-0-0----|
D-0-0--------------0-0-------0-0---------0-0-0-0-0----|

e------0-------0--------0--------0---0----|
b------5-------5--------5--------5---5----|
g--------6---6------------6--------6------|
d—0-0--------------0-0-------0-0----------|
a—0-0--------------0-0-------0-0----------|
D-0-0--------------0-0-------0-0----------|
                                           X2
e----------------------------------------|
b--00000---0-----0-----0-----------------|
g-22222222-2-----6-66666-----------------|
d-44444444-4-----7-77777-----------------|
a-44444444-4-----7-77777-----------------|
D-44444444-4-----7-77777-----------------|

Chorus-
e------------------------------------------------------------------|
b-0----0----0----0------0----0---0----0-------0----0----0----0-----|
g-11111111111111111111--22222222222222222222--11111111111111111111-|
d-22222222222222222222--44444444444444444444--22222222222222222222-|
a-22222222222222222222--44444444444444444444—-22222222222222222222-|
D-22222222222222222222--44444444444444444444--22222222222222222222-|

lol i love this litle bit...its strumming chords making out onnnn myyy owwnnn like the 
with the violins

e-222222-444444-555555----------------|
b-333333-333333-333333--0-----0-0-----|
g-222222-222222-222222--6-6-6-6-6-----|
d-----------------------7-7-7-7-7-----| x4
a-----------------------7-7-7-7-7-----|
D-----------------------7-7-7-7-7-----|
  onnnn  myyyyy ownnnn

umm this part
e-----
b-----
g-6--- strum as much times needed atleast 50 (not a very good guesser)
d-7---
a-7--- this is the part when bert says something idont no then screems
D-7---

Chorus-
e------------------------------------------------------------------|
b-0----0----0----0------0----0---0----0-------0----0----0----0-----|
g-11111111111111111111--22222222222222222222--11111111111111111111-|
d-22222222222222222222--44444444444444444444--22222222222222222222-|
a-22222222222222222222--44444444444444444444—-22222222222222222222-|
D-22222222222222222222--44444444444444444444--22222222222222222222-|

e-222222-444444-555555----------------|
b-333333-333333-333333--0-----0-0-----|
g-222222-222222-222222--6-6-6-6-6-----|
d-----------------------7-7-7-7-7-----| x4
a-----------------------7-7-7-7-7-----|
D-----------------------7-7-7-7-7-----|
 onnnnn myyyyy ownnnnn

ARR thts gottah be the most typing & copying and pasting ive done but i didnt do it for 
i did it for the people.....but for me aswell cause i was bored as hell!!! hope you enjoy

            
            
Suggest correction
Creating personal tab
Creating personal tab
You can edit any tab online and save it as your Personal.

You can edit, replace or remove any tab part or add personal notes – all changes will be seen only by you.

Personal tabs can be accessed anytime from any device, even offline.
Learn more »
comments
print report bad tab
20 comments total. Showing first comments.
0 reply
element_33 10 Jan 04, 2006 03:09 PM

isnt the intro part, the part where u first strum,
-0
-5
-6
-7
-4
-4
instead of?
-2
-4
-4
-4

0 reply
element_33 10 Jan 04, 2006 03:10 PM

but it all sounds good

+2 reply
verninator 10 Mar 25, 2006 04:37 PM

learn how to use grammer and spelling

guest
You may want to rate the tab now too:
select rating
Wanna post a correction for this tab? Suggest correction