Oops, an error
Loading. Please wait.

On My Own tab

version 4
version 4

Whole song

Interactive

20,032 views 9 this week
5 commentsread comments
1 2 3 4 5
x 4
add to favorites
×
Save as Personal and add changes to this tab that will be seen only by you. Learn more ›
×
You can save this tab as Personal to edit and correct it or add notes. All changes will be seen only by you. Learn more »
launch autoscroll
font size
0
reset
how to read this tab
guitar tuner
edit
Autoscroll
slow
fast
+/-
esc
set tempo
stop
Author
Difficulty
intermediate
On My Own
The Used



Intro

e------0-------0--------0--------|
b------5-------5--------5--------|
g-0-0----6---6-----0-0----6------|
d—0-0----0---0-----0-0-----------|
a—0-0--------------0-0-----------|
E-0-0--------------0-0-----------|
   F#m11           A                 }x2
e--------------------------------|
b--00000---0-----0-----0---------|
g-22222222-2-----6-66666---------|
d-44444444-4-----7-77777---------|
a-44444444-4-----7-77777---------|
E-44444444-4-----7-77777---------|

Verse

e------0-------0--------0--------|
b------5-------5--------5--------|
g-0-0----6---6-----0-0----6------|
d—0-0----0---0-----0-0-----------|
a—0-0--------------0-0-----------|
E-0-0--------------0-0-----------|
   F#m11          A                 x2
e--------------------------------|
b--0-0-0---0-----0-----0---------|
g-22222222-2-----6-666666666-----|
d-44444444-4-----7-777777777-----|
a-44444444-4-----7-777777777-----|
E-44444444-4-----7-777777777-----|

   F#m11
e--------------------------------|
b--0-0-0---0-----0-----0---------|
g-22222222-2-----6-66666---------|
d-44444444-4-----7-77777---------|
a-44444444-4-----7-77777---------|
E-44444444-4-----7-77777---------|



Chorus
  E
e------------------------------------------------------------------|
b-0----0----0----0------0----0---0----0-------0----0----0----0-----|
g-11111111111111111111--22222222222222222222--11111111111111111111-|
d-22222222222222222222--44444444444444444444--22222222222222222222-|
a-22222222222222222222--44444444444444444444—-22222222222222222222-|
E-00000000000000000000--44444444444444444444--00000000000000000000-| 
  Without it all...

e------------------------------------------------------------------------|
b-0----0----0----0------0----0---0----0-------0----0----0----0------0-0--|
g-11111111111111111111--22222222222222222222--11111111111111111111--6666-|
d-22222222222222222222--44444444444444444444--22222222222222222222--7777-|
a-22222222222222222222--44444444444444444444—-22222222222222222222--7777-|
E-00000000000000000000--44444444444444444444--00000000000000000000--7777-|




Bridge

e----------------------------| I'm just guessing on how many times you play 
B-0-0-0-0-0-0-0-0---0-0-0-0-0|   that
G-666666666666666---222222222|                      
D-777777777777777---444444444|
A-777777777777777---444444444|
E-777777777777777---444444444|

Intro 
Verse
Chorus
Verse
Chorus
Bridge

            
            
Suggest correction
Creating personal tab
Creating personal tab
You can edit any tab online and save it as your Personal.

You can edit, replace or remove any tab part or add personal notes – all changes will be seen only by you.

Personal tabs can be accessed anytime from any device, even offline.
Learn more »
comments
print report bad tab
5 comments total. Showing first comments.
+1 reply
f1f2 774 Jul 01, 2006 03:47 AM

drop d?

0 reply
NoideaDrivethru 10 Jul 01, 2006 05:25 PM

Quinn Alman uses "Drop-D" tuning. So, whenever you use the power chord 022xxx it should be 222xxx and so on.

+1 reply
fawna 31 Jul 02, 2006 07:11 AM

well if you say quinn drops the E i guess you should drop the E, thanks. i didnt really notice too much of a difference, its hard to hear the difference in the song you know..

guest
You may want to rate the tab now too:
select rating
Wanna post a correction for this tab? Suggest correction