Oops, an error
Loading. Please wait.

Overdose tab

127 views 1 this week
no commentswrite comment
1 2 3 4 5
3 more votes to show rating
add to favorites
×
Save as Personal and add changes to this tab that will be seen only by you. Learn more ›
×
You can save this tab as Personal to edit and correct it or add notes. All changes will be seen only by you. Learn more »
launch autoscroll
font size
0
reset
how to read this tab
guitar tuner
edit
Autoscroll
slow
fast
+/-
esc
set tempo
stop
Author
Difficulty
D Tuning (DADGBe)

INTRO
     F      G
E------------------------------|
B------------------------------|
G----5------7------------------|
D----3-x8---5-x8---------------|
A----3------5------------------|
D----3------5------------------|

VERSE
     F      G
E------------------------------|
B------------------------------|
G----5------7------------------|
D----3-x8---5-x8---------------|
A----3------5------------------|
D----3------5------------------|

F                    G
Does it start all at once?
                       F
 Or come as slow as can be.
                         G
 It's not about you and me
F                       G
 And never mind what it costs
                           F
 At least it's not make believe
                   G
 We can get it for free

BRIDGE
    Am      F      C     G
E----0---------------------------|
B----1---------------------------|
G----2------5------5------7------|
D----2------3------5------5------|
A----0------3------3------5------|
D----x------3------x------5------|

         Am
 But to get love
                 F
 You have got to give love
                C
 Somehow I got your love
                 G
 Was it meant to be?

CHORUS
    C     G     Am     F
E------------------------------|
B----------------1-------------|
G---5-----7------2-----5-------|
D---5-----5------2-----3-------|
A---3-----5------0-----3-------|
D---x-----5------x-----3-------|

C
Your love
    G
 Is my drug
      Am
 I've overdosed
     F
 I'm right where I'm supposed to be
      C
 Yeah your love
    G
 Is fatal
             Am
 Planning an overdose
    F
 An overdose

VERSE 2

     F      G
E------------------------------|
B------------------------------|
G----5------7------------------|
D----3-x8---5-x8---------------|
A----3------5------------------|
D----3------5------------------|

 Then just like in the books
 'The Voices' spoke unto me
 Their words as clear as can be
 They Say: no one can take it away
 Nothing can come in-between
 can't steal something that's free, yeah

(BRIDGE)
(CHORUS)

VERSE 3

     F      G
E------------------------------|
B------------------------------|
G----5------7------------------|
D----3-x8---5-x8---------------|
A----3------5------------------|
D----3------5------------------|


 And in the end I found peace
 Don't know why you would choose me
 And in the end I found peace
 My darling drug you kill me

 Don't think we're meant to go it alone
 I could be wrong but I'll wait and see
 I get caught up when you're singing along
 An overdose would come naturally
 It might sound mean but don't get me wrong
 If I'm a slave, I don't wanna be free
 I get fucked up when you sing along
 An overdose would come naturally

(CHORUS)
Suggest correction
Creating personal tab
Creating personal tab
You can edit any tab online and save it as your Personal.

You can edit, replace or remove any tab part or add personal notes – all changes will be seen only by you.

Personal tabs can be accessed anytime from any device, even offline.
Learn more »
Give kudos to tab author, rate the tab!
1 2 3 4 5
comments
print report bad tab
guest
You may want to rate the tab now too:
select rating
Wanna post a correction for this tab? Suggest correction