Oops, an error
Loading. Please wait.

Paralyzed Bass Tab

version 1
version 1

Whole song

Interactive

11,156 views 9 this week
5 commentsread comments
1 2 3 4 5
excellent!
x 14
add to favorites
launch autoscroll
font size
0
reset
guitar tuner
Tab Pro tools
  • play this tab
  • loop segment
  • change instrument
  • show fretboard
  • metronome
×
Best way to learn
"Paralyzed"
Autoscroll
slow
fast
+/-
esc
set tempo
stop
Contributor
TUNING IS NORMAL!!!

G|
D|
A|
E|

i really wanted to learn this one, i think this is the best song on
their new album

~ ring out
B- bend
/ slide down
\slide up

Intro comes in at :10 seconds

G|------------------------------------------------------------------|
D|------------------------------------------------------------------|
A|9-99------4-5-4-5-55-5-5-2-4-5-4-9-99------4-5-4-5-55-5-5h7-5-4-2-|
E|----2-4-5----------------------------2-4-5------------------------|


verse

G|--------------------------------|
D|--------------------------------|
A|--2222-55-77-88-9~-000-5~-------|
E|2~------------------------00-11-|  those are one's

G|--------------------------------------------------------|
D|--------------------------------------------------------|
A|9-99------4-5-4-5-55-55-2-4-5-4-9-99-----4-5-4-2~-5B5/--|
E|----2-4-5---------------------------2-4-5---------------|


Chorus

G|------------------------------------------------------------------|
D|------------------------------------------------------------------|
A|9-99------4-5-4-5-55-5-5-2-4-5-4-9-99------4-5-4-5-55-5-5h7-5-4-2-|
E|----2-4-5----------------------------2-4-5------------------------|

2nd verse: its kind of hard to hear but its there

G|-------------------------------------------------|
D|-------------------------------------------------|
A|--99-79-79-55-----------99-79-79-55-55~-77-88-9--|
E|2---------------0-00-1-2-------------------------|

(this part is still the 2nd verse, the 9 up there is included
in this bottom part)

G|--------------------------------------------------------|
D|--------------------------------------------------------|
A|99------4-5-4-5-55-5-5-2-4-5-4-9-99------4-5-4-2~-5-555-|
E|---2-4-5----------------------------2-4-5---------------|


Chorus

G|----------------------------------------------------------------|
D|----------------------------------------------------------------|
A|9-99------4-5-4-5-55-5-5-2-4-5-4-9-99------4-5-4-5-55-5-5h7-5-4-|
E|----2-4-5----------------------------2-4-5----------------------|


Chorus

G|------------------------------------------------------------------|
D|------------------------------------------------------------------|
A|9-99------4-5-4-5-55-5-5-2-4-5-4-9-99------4-5-4-5-55-5-5h7-5-4-2-|
E|----2-4-5----------------------------2-4-5------------------------|


Bridge: These ARE elevens


G|------------------------------------------------------------------|
D|---------------------------------11-9-7---------------------------|
A|5-5-55-7-5-4-5-7-7-7-7-7-7-7------------9-7-7-7-7-7-7-7-----------|
E|----------------------------2-222----------------------2-22-2-2-2-|


CONTINUED these are twelve's


G|------------------------------------------------------------------|
D|11-9-7-----------------------------12121212-----------------------|
A|-------9-7-7-7-7-7-7-7-7-5-5-5-5\----------4-4-4-4-4---7777-7-5-7-|
E|------------------------------------------------------------------|


G|--------------------|
D|--------------------|
A|9/-9/--9/-9/--9/-9/-|
E|--------------------|

during the little drum thing after the slides I do

G|----------|
D|----------|
A|----------|
E|222222222-


G|------------------|
D|------------------|
A|-----55/--99/--5/-|
E|22/---------------|


x2
G|------------------------------------------------------------------|
D|------------------------------------------------------------------|
A|9-99------4-5-4-5-55-5-5-2-4-5-4-9-99------4-5-4-5-55-5-5h7-5-4-2-|
E|----2-4-5----------------------------2-4-5------------------------|

G|---------------------------------------------------------------------|
D|-------------------11-9-7-----------9--------11-9-7-------------9-9--|
A|7-7-7-7-7-7-7------------9-7-7-7-7-7-7-7-----------9-7-7-7-7-7-7-7-7-|
E|-------------2-222----------------------2-222------------------------|

G|--------------------------------------------|
D|--------1212121212--------------------------|
A|5-5-5-5/-----------4-4-4-4-4-77777777-7-5-7-|
E|--------------------------------------------|


G|--------------------|
D|--------------------|
A|9/-9/--9/-9/--9/-9/-|
E|--------------------|


G|----------------|
D|----------------|
A|--------9~~-----|
E|2-2-2-----------|

i think this tab is really good. let me know please!
comments
print report bad tab
5 comments total. Showing first comments.
0 reply
Mikey_or_Hunter wrote on July 17 2007, 06:21 pm

Great tab its perfect

+2 reply
stfu hommie wrote on August 28 2007, 08:40 pm

This tab is perfect all except I have a suggestion. Instead of playing the first note of the chorus [the 9-99, on the A string] the same note is on the fourth fret on the D string. It makes playing musch easier [for me at least] and I don't feel as rushed. :]

0 reply
hoppusfan182 wrote on October 17 2007, 02:42 pm

kick a$$ tab man

I want to post or [tab]
guest
You may want to rate the tab now too:
select rating
Please do not post tabs as comments. Select "correction" instead!