Oops, an error
Loading. Please wait.

Paralyzed Bass Tab

version 2
version 2

Whole song

Interactive

1,034 views 1 this week
1 commentread comment
1 2 3 4 5
worth learning
x 2
add to favorites
launch autoscroll
font size
0
reset
guitar tuner
Tab Pro tools
  • play this tab
  • loop segment
  • change instrument
  • show fretboard
  • metronome
Autoscroll
slow
fast
+/-
esc
set tempo
stop
Difficulty
intermediate
The Used-Paralyzed

~|let ring
\|slide down
/|slide up

intro-start at 00:10 after guitar and piano
E|-----------5-7------------7--------------5-7--------------------------|
A|--------------54--5-55-5-5--454--------------54--5-55-5-5-7-5-4-5-4~--|
D|--4-44-4-4---------------------4-44-4-4-------------------------------|
G|----------------------------------------------------------------------|

verse 1 part 1
E|---------------------5--7---|
A|-~4---5--7----4--5----------|
D|-----------4----------------|
G|----------------------------|

verse 1 part 2
E|-----------5-7--------------7--------------5-7---------|
A|--------------454--5-55-5-5--454--------------54--5~7~-|
D|--4-44-4-------------------------4-44-4-4--------------|
G|-------------------------------------------------------|

chorus
E|-----------5-7------------7--------------5-7--------------------------|
A|--------------54--5-55-5-5--454--------------54--5-55-5-5-7-5-4-5-4---|
D|--4-44-4-4---------------------4-44-4-4-------------------------------|
G|----------------------------------------------------------------------|

verse 2 part 1
E|--56------44-1-2------56--------------------|
A|----4--55---------1-22---4--55-55-7-5-4-5-4-|
D|--------------------------------------------|
G|--------------------------------------------|

verse 2 part 2
E|-----------5-7--------------7--------------5-7---------|
A|--------------454--5-55-5-5--454--------------54--5~7~-|
D|--4-44-4-------------------------4-44-4-4--------------|
G|-------------------------------------------------------|

chorus
E|-----------5-7------------7--------------5-7--------------------------|
A|--------------54--5-55-5-5--454--------------54--5-55-5-5-7-5-4-5-4---|
D|--4-44-4-4---------------------4-44-4-4-------------------------------|
G|----------------------------------------------------------------------|

E|-----------5-7------------7--------------5-7--------------------------|
A|--------------54--5-55-5-5--454--------------54--5-55-5-5-7-5-4-5-4~--|
D|--4-44-4-4---------------------4-44-4-4-------------------------------|
G|----------------------------------------------------------------------|

bridge
E|----------------------------------------------------|
A|--44-7-5-454-2-33-1-3-0-33-6-43-41--442-41-553-53/8-|
D|----------------------------------------------------|
G|----------------------------------------------------|

"knock me out!"
E|---------------------------------------------------|
A|--9\-9\---9\-9\---9\-9\-5-7-8-9-------555------5\--|
D|--------------------------------444---------444----|
G|---------------------------------------------------|

outro
E|-----------5-7------------7--------------5-7--------------------------|
A|--------------54--5-55-5-5--454--------------54--5-55-5-5-7-5-4-5-4---|
D|--4-44-4-4---------------------4-44-4-4-------------------------------|
G|----------------------------------------------------------------------|

E|-----------5-7------------7--------------5-7--------------------------|
A|--------------54--5-55-5-5--454--------------54--5-55-5-5-7-5-4-5-4~--|
D|--4-44-4-4---------------------4-44-4-4-------------------------------|
G|----------------------------------------------------------------------|

E|----------------------------------------------------|
A|--44-7-5-454-2-33-1-3-0-33-6-43-41--442-41-553-53/8-|
D|----------------------------------------------------|
G|----------------------------------------------------|

E|----------------------------------|
A|--9\-9\---9\-9\---9\-9\-5-7-8-9~--|
D|----------------------------------|
G|----------------------------------|


i busted my ass on this so i hope you like it, its a great song, fun to play when you 
it right, im not sure if the first part of the bridge is right but thats the best i can do 
 otherwise, rock out.
comments
We did not receive enough feedback on this tab! Please rate:
print report bad tab
1 2 3 4 5
1 comment total.
0 reply
jephareexxx wrote on July 13 2007, 05:23 pm

DA USED = TEH BEST BAND EVA GUD JOB KID

I want to post or [tab]
guest
You may want to rate the tab now too:
select rating
Please do not post tabs as comments. Select "correction" instead!