Oops, an error
Loading. Please wait.

Paralyzed tab

version 2
version 2

Whole song

Interactive

17,347 views 18 this week
7 commentsread comments
1 2 3 4 5
x 13
add to favorites
×
Save as Personal and add changes to this tab that will be seen only by you. Learn more ›
×
You can save this tab as Personal to edit and correct it or add notes. All changes will be seen only by you. Learn more »
launch autoscroll
font size
0
reset
how to read this tab
guitar tuner
edit
Autoscroll
slow
fast
+/-
esc
set tempo
stop
Author
Difficulty
Band: The Used
Song: Paralyzed
Album: Lies For The Liars
Tabber: Stufin135 (Hellbassist1)

There already was a version of this on here but it was missing a few parts so i made a 
version. Thanks and rate fairly.

INTRO

Guitar 1
e|-------------------------------------||
B|-------------------------------------||
G|-------------------------------------||
D|-------------------------------------||
A|-------------------------------------||
E|-------------------------------------||

e|-------------------------------------||
B|-------------------------------------||
G|-------------------------------------||
D|-------------------------------------||
A|-9-9-9------4-5-4-5-5-5--5-5-2-4-5-4-||
E|------2-4-5--------------------------||
PM.....................................

e|-----------------------------------------||
B|-----------------------------------------||
G|-11-11-11-------6-7-6-7-7-7--7-7-4-6-7-6-||
D|-11-11-11-4-6-7-6-7-6-7-7-7--7-7-4-6-7-6-||
A|-9--9--9--4-6-7-4-5-4-5-5-5--5-5-2-4-5-4-||
E|----------2-4-5--------------------------||

e|------------------------------------------||
B|------------------------------------------||
G|-11-11-11-------6-7-6-7-7-7--7/10-4\7/8-7-||
D|-11-11-11-4-6-7-6-7-6-7-7-7--7/10-4\7/8-7-||
A|-9--9--9--4-6-7-4-5-4-5-5-5--5/8--6\5/6-5-||
E|----------2-4-5---------------------------||

Guitar 2
e|-------------------------------------||
B|-------------------------------------||
G|-------------------------------------||
D|-------------------------------------||
A|-------------------------------------||
E|-------------------------------------||

e|-5-5-5-5-5-5-5-5-5-5-5-5-5-5-5-5-5-5-||
B|-7-7-7-7-7-7-7-7-7-7-7-7-7-7-7-7-7-7-||
G|-0-0-0-0-0-0-0-0-0-0-0-0-0-0-0-0-0-0-||
D|-4-4-4-4-4-4-4-4-4-4-4-4-4-4-4-4-4-4-||
A|-------------------------------------||
E|-------------------------------------||

e|-------------------------------------||
B|-------------------------------------||
G|-------------------------------------||
D|-------------------------------------||
A|-9-9-9------4-5-4-5-5-5--5-5-2-4-5-4-||
E|------2-4-5--------------------------||

e|--------------------------------------||
B|--------------------------------------||
G|--------------------------------------||
D|--------------------------------------||
A|-9-9-9------4-5-4-5-5-5--5-8-6-5-6-5~-||
E|------2-4-5---------------------------||

VERSE 1

Guitar 1
e|------5------------5-------------5--------------------------0~------5-------||
B|--------7~-----------7~------------7~----------3----------------------7~----||
G|-------------------------------------------------2~------4------------------||
D|-4-4-----------4-4----------4-4-----------0-0----------4--------4-4---------||
A|-----------------------------------------------------2----------------------||
E|----------------------------------------------------------------------------||

e|------------------------------||
B|------------------------------||
G|-7~-7777777-7/9~-9999999-9~---||
D|-7~-7777777-7/9~-9999999-9~---||
A|-5~-5555555-5/7~-7777777-7~---||
E|------------------------------||

Guitar 2

e|-------------------------------------||
B|-------------------------------------||
G|-------------------------------------||
D|-------------------------------------||
A|-------------------------------------||
E|-------------------------------------||


e|--------------------------------------||
B|--------------------------------------||
G|--------------------------------------||
D|--------------------------------------||
A|--------------------------------------||
E|--------------------------------------||

e|-------------------------------------||
B|-------------------------------------||
G|-------------------------------------||
D|-------------------------------------||
A|-9-9-9------4-5-4-5-5-5--5-5-2-4-5-4-||
E|------2-4-5--------------------------||
PM.....................................

e|--------------------------------------||
B|--------------------------------------||
G|--------------------------------------||
D|--------------------------------------||
A|-9-9-9------4-5-4-5-5-5--5-8-6-5-6-5~-||
E|------2-4-5---------------------------||
PM......................................

e|--------------------------------------||
B|--------------------------------------||
G|--------------------------------------||
D|--------------------------------------||
A|-9-9-9------4-5-4-5-5-5--5-5-2-4-5-4~-||
E|------2-4-5---------------------------||
PM.....................................

CHORUS

Guitar 1
e|-----------------------------------------||
B|-----------------------------------------||
G|-11-11-11-------6-7-6-7-7-7--7-7-4-6-7-6-||
D|-11-11-11-4-6-7-6-7-6-7-7-7--7-7-4-6-7-6-||
A|-9--9--9--4-6-7-4-5-4-5-5-5--5-5-2-4-5-4-||
E|----------2-4-5--------------------------||

e|------------------------------------------||
B|------------------------------------------||
G|-11-11-11-------6-7-6-7-7-7--7/10-4\7/8-7-||
D|-11-11-11-4-6-7-6-7-6-7-7-7--7/10-4\7/8-7-||
A|-9--9--9--4-6-7-4-5-4-5-5-5--5/8--6\5/6-5-||
E|----------2-4-5---------------------------||

Guitar 2
e|-------------------------------------||
B|-------------------------------------||
G|-------------------------------------||
D|-------------------------------------||
A|-9-9-9------4-5-4-5-5-5--5-5-2-4-5-4-||
E|------2-4-5--------------------------||

e|--------------------------------------||
B|--------------------------------------||
G|--------------------------------------||
D|--------------------------------------||
A|-9-9-9------4-5-4-5-5-5--5-8-6-5-6-5~-||
E|------2-4-5---------------------------||

VERSE 2

Guitar 1
e|------5------------5-------------5--------------------------0~------5-------||
B|--------7~-----------7~------------7~----------3----------------------7~----||
G|-------------------------------------------------2~------4------------------||
D|-4-4-----------4-4----------4-4-----------0-0----------4--------4-4---------||
A|-----------------------------------------------------2----------------------||
E|----------------------------------------------------------------------------||
                             PM.........................................
e|------------------------------||
B|------------------------------||
G|-7~-7777777-7/9~-9999999-9~---||
D|-7~-7777777-7/9~-9999999-9~---||
A|-5~-5555555-5/7~-7777777-7~---||
E|------------------------------||

Guitar 2
e|-------------------------------------||
B|-------------------------------------||
G|-------------------------------------||
D|-------------------------------------||
A|-------------------------------------||
E|-------------------------------------||


e|--------------------------------------||
B|--------------------------------------||
G|--------------------------------------||
D|--------------------------------------||
A|--------------------------------------||
E|--------------------------------------||

e|-------------------------------------||
B|-------------------------------------||
G|-------------------------------------||
D|-------------------------------------||
A|-9-9-9------4-5-4-5-5-5--5-5-2-4-5-4-||
E|------2-4-5--------------------------||
PM.....................................

e|--------------------------------------||
B|--------------------------------------||
G|--------------------------------------||
D|--------------------------------------||
A|-9-9-9------4-5-4-5-5-5--5-8-6-5-6-5~-||
E|------2-4-5---------------------------||
PM......................................

e|--------------------------------------||
B|--------------------------------------||
G|--------------------------------------||
D|--------------------------------------||
A|-9-9-9------4-5-4-5-5-5--5-5-2-4-5-4~-||
E|------2-4-5---------------------------||
PM.....................................

CHORUS

Guitar 1
e|-----------------------------------------||
B|-----------------------------------------||
G|-11-11-11-------6-7-6-7-7-7--7-7-4-6-7-6-||
D|-11-11-11-4-6-7-6-7-6-7-7-7--7-7-4-6-7-6-||
A|-9--9--9--4-6-7-4-5-4-5-5-5--5-5-2-4-5-4-||
E|----------2-4-5--------------------------||

e|------------------------------------------||
B|------------------------------------------||
G|-11-11-11-------6-7-6-7-7-7--7/10-4\7/8-7-||
D|-11-11-11-4-6-7-6-7-6-7-7-7--7/10-4\7/8-7-||
A|-9--9--9--4-6-7-4-5-4-5-5-5--5/8--6\5/6-5-||
E|----------2-4-5---------------------------||

e|-----------------------------------------||
B|-----------------------------------------||
G|-11-11-11-------6-7-6-7-7-7--7-7-4-6-7-6-||
D|-11-11-11-4-6-7-6-7-6-7-7-7--7-7-4-6-7-6-||
A|-9--9--9--4-6-7-4-5-4-5-5-5--5-5-2-4-5-4-||
E|----------2-4-5--------------------------||

e|------------------------------------------||
B|------------------------------------------||
G|-11-11-11-------6-7-6-7-7-7--7/10-4\7/8-7-||
D|-11-11-11-4-6-7-6-7-6-7-7-7--7/10-4\7/8-7-||
A|-9--9--9--4-6-7-4-5-4-5-5-5--5/8--6\5/6-5-||
E|----------2-4-5---------------------------||

Guitar 2
e|-------------------------------------||
B|-------------------------------------||
G|-------------------------------------||
D|-------------------------------------||
A|-9-9-9------4-5-4-5-5-5--5-5-2-4-5-4-||
E|------2-4-5--------------------------||

e|--------------------------------------||
B|--------------------------------------||
G|--------------------------------------||
D|--------------------------------------||
A|-9-9-9------4-5-4-5-5-5--5-8-6-5-6-5~-||
E|------2-4-5---------------------------||

e|---------------||
B|-6b~-8b~-10b~--||
G|---------------||
D|---------------||
A|---------------||
E|---------------||

e|---------------||
B|-6b~-8b~-10b~--||
G|---------------||
D|---------------||
A|---------------||
E|---------------||

POST CHORUS

Guitar 1
e|-----------||
B|-----------||
G|-7-7777777-||
D|-7-7777777-||
A|-5-5555555-||
E|-----------||

Guitar 2
e|-----------||
B|-----------||
G|-7-7777777-||
D|-7-7777777-||
A|-5-5555555-||
E|-----------||

BRIDGE

Guitar 1
e|---------------------------------------||
B|---------------------------------------||
G|-11~-11111111111111-11/7~-7777777-7~---||
D|-11~-11111111111111-11/7~-7777777-7~---||
A|-9~--9-9-9-9-9-9-9--9-/6~-6666666-6~---||
E|---------------------------------------||

e|---------------------------------------||
B|---------------------------------------||
G|-11~-11111111111111-11/7~-7777777-7~---||
D|-11~-11111111111111-11/7~-7777777-7~---||
A|-9~--9-9-9-9-9-9-9--9-/6~-6666666-6~---||
E|---------------------------------------||

e|---------------------------------------||
B|---------------------------------------||
G|-11~-11111111111111-11/7~-7777777-7~---||
D|-11~-11111111111111-11/7~-7777777-7~---||
A|-9~--9-9-9-9-9-9-9--9-/6~-6666666-6~---||
E|---------------------------------------||

e|------------------------||
B|------------------------||
G|-10~-10101010101010-10--||
D|-10~-10101010101010-10--||
A|-8~--8-8-8-8-8-8-8--8---||
E|------------------------||

e|-------------------------------||
B|-------------------------------||
G|-11~-11~-xxxxxx-11~-11~-xxxxxx-||
D|-11~-11~-xxxxxx-11~-11~-xxxxxx-||
A|-9~--9~--xxxxxx-9~--9~--xxxxxx-||
E|-------------------------------||

e|-------------------------------||
B|-------------------------------||
G|-11~-11~----------------xxxxxx-||
D|-11~-11~----------------xxxxxx-||
A|-9~--9~-----------------xxxxxx-||
E|-------------------------------||

Guitar 2
e|------5---5---5---5-------------------||
B|--------7---7---7---7-----3---3---3---||
G|----------------------------2---2---2-||
D|-4-4------------------0-0-------------||
A|--------------------------------------||
E|--------------------------------------||

e|------5---5---5---5-------------------||
B|--------7---7---7---7-----3---3---3---||
G|----------------------------2---2---2-||
D|-4-4------------------0-0-------------||
A|--------------------------------------||
E|--------------------------------------||

e|------5---5---5---5-------------------||
B|--------7---7---7---7-----3---3---3---||
G|----------------------------2---2---2-||
D|-4-4------------------0-0-------------||
A|--------------------------------------||
E|--------------------------------------||

e|------5---5---5---5---||
B|--------7---7---7---7-||
G|----------------------||
D|-4-4------------------||
A|----------------------||
E|----------------------||

e|-------------------------------||
B|-------------------------------||
G|-11~-11~-xxxxxx-11~-11~-xxxxxx-||
D|-11~-11~-xxxxxx-11~-11~-xxxxxx-||
A|-9~--9~--xxxxxx-9~--9~--xxxxxx-||
E|-------------------------------||

e|-------------------------------||
B|-------------------------------||
G|-11~-11~----------------xxxxxx-||
D|-11~-11~----------------xxxxxx-||
A|-9~--9~-----------------xxxxxx-||
E|-------------------------------||

PRE CHORUS
e|---------------------------------||
B|---------------------------------||
G|-11-1111--7-77--11-1111-xxxxx-7~-||
D|-11-1111--7-77--11-1111-xxxxx-7~-||
A|-9--9-9---5-55--9--9-9--xxxxx-5~-||
E|---------------------------------||

CHORUS

Guitar 1
e|-----------------------------------------||
B|-----------------------------------------||
G|-11-11-11-------6-7-6-7-7-7--7-7-4-6-7-6-||
D|-11-11-11-4-6-7-6-7-6-7-7-7--7-7-4-6-7-6-||
A|-9--9--9--4-6-7-4-5-4-5-5-5--5-5-2-4-5-4-||
E|----------2-4-5--------------------------||

e|------------------------------------------||
B|------------------------------------------||
G|-11-11-11-------6-7-6-7-7-7--7/10-4\7/8-7-||
D|-11-11-11-4-6-7-6-7-6-7-7-7--7/10-4\7/8-7-||
A|-9--9--9--4-6-7-4-5-4-5-5-5--5/8--6\5/6-5-||
E|----------2-4-5---------------------------||

e|-----------------------------------------||
B|-----------------------------------------||
G|-11-11-11-------6-7-6-7-7-7--7-7-4-6-7-6-||
D|-11-11-11-4-6-7-6-7-6-7-7-7--7-7-4-6-7-6-||
A|-9--9--9--4-6-7-4-5-4-5-5-5--5-5-2-4-5-4-||
E|----------2-4-5--------------------------||

e|------------------------------------------||
B|------------------------------------------||
G|-11-11-11-------6-7-6-7-7-7--7/10-4\7/8-7-||
D|-11-11-11-4-6-7-6-7-6-7-7-7--7/10-4\7/8-7-||
A|-9--9--9--4-6-7-4-5-4-5-5-5--5/8--6\5/6-5-||
E|----------2-4-5---------------------------||

Guitar 2

e|---------------||
B|-6b~-8b~-10b~--||
G|---------------||
D|---------------||
A|---------------||
E|---------------||

e|---------------||
B|-6b~-8b~-10b~--||
G|---------------||
D|---------------||
A|---------------||
E|---------------||

e|---------------||
B|-6b~-8b~-10b~--||
G|---------------||
D|---------------||
A|---------------||
E|---------------||

e|-----||
B|-6b~-||
G|-----||
D|-----||
A|-----||
E|-----||

OUTRO

Guitar 1
e|---------------------------------------||
B|---------------------------------------||
G|-11~-11111111111111-11/7~-7777777-7~---||
D|-11~-11111111111111-11/7~-7777777-7~---||
A|-9~--9-9-9-9-9-9-9--9-/6~-6666666-6~---||
E|---------------------------------------||

e|---------------------------------------||
B|---------------------------------------||
G|-11~-11111111111111-11/7~-7777777-7~---||
D|-11~-11111111111111-11/7~-7777777-7~---||
A|-9~--9-9-9-9-9-9-9--9-/6~-6666666-6~---||
E|---------------------------------------||

e|---------------------------------------||
B|---------------------------------------||
G|-11~-11111111111111-11/7~-7777777-7~---||
D|-11~-11111111111111-11/7~-7777777-7~---||
A|-9~--9-9-9-9-9-9-9--9-/6~-6666666-6~---||
E|---------------------------------------||

e|------------------------||
B|------------------------||
G|-10~-10101010101010-10--||
D|-10~-10101010101010-10--||
A|-8~--8-8-8-8-8-8-8--8---||
E|------------------------||

e|-------------------------------||
B|-------------------------------||
G|-11~-11~-xxxxxx-11~-11~-xxxxxx-||
D|-11~-11~-xxxxxx-11~-11~-xxxxxx-||
A|-9~--9~--xxxxxx-9~--9~--xxxxxx-||
E|-------------------------------||

e|-------------------------||
B|-------------------------||
G|-11~-11~-xxxxxx-----11~~-||
D|-11~-11~-xxxxxx-2-2-11~~-||
A|-9~--9~--xxxxxx-2-2-9~~--||
E|----------------0-0------||
         PM..........

Guitar 2
e|------5---5---5---5-------------------||
B|--------7---7---7---7-----3---3---3---||
G|----------------------------2---2---2-||
D|-4-4------------------0-0-------------||
A|--------------------------------------||
E|--------------------------------------||

e|------5---5---5---5-------------------||
B|--------7---7---7---7-----3---3---3---||
G|----------------------------2---2---2-||
D|-4-4------------------0-0-------------||
A|--------------------------------------||
E|--------------------------------------||

e|------5---5---5---5-------------------||
B|--------7---7---7---7-----3---3---3---||
G|----------------------------2---2---2-||
D|-4-4------------------0-0-------------||
A|--------------------------------------||
E|--------------------------------------||

e|------5---5---5---5---||
B|--------7---7---7---7-||
G|----------------------||
D|-4-4------------------||
A|----------------------||
E|----------------------||

e|-------------------------------||
B|-------------------------------||
G|-11~-11~-xxxxxx-11~-11~-xxxxxx-||
D|-11~-11~-xxxxxx-11~-11~-xxxxxx-||
A|-9~--9~--xxxxxx-9~--9~--xxxxxx-||
E|-------------------------------||

e|-------------------------||
B|-------------------------||
G|-11~-11~-xxxxxx-----11~~-||
D|-11~-11~-xxxxxx-2-2-11~~-||
A|-9~--9~--xxxxxx-2-2-9~~--||
E|----------------0-0------||
         PM..........

            
            
Suggest correction
Creating personal tab
Creating personal tab
You can edit any tab online and save it as your Personal.

You can edit, replace or remove any tab part or add personal notes – all changes will be seen only by you.

Personal tabs can be accessed anytime from any device, even offline.
Learn more »
comments
print report bad tab
7 comments total. Showing first comments.
0 reply
dannytalent 115 Jun 27, 2007 02:58 PM

good tab, awesome song!!!!:)

0 reply
xXmasqueradeXx 30 Aug 18, 2007 11:52 PM

not perfect, but good

+1 reply
SpecialGuest 10 Aug 23, 2007 06:27 PM

The Main riff is:
e|-------------------------------------||
B|-------------------------------------||
G|-------------------------------------||
D|-------------------------------------||
A|-9-9-9------4-5-4-5-5-5--5-5-2-4-5-4-||
E|------2-4-5--------------------------||

e|--------------------------------------||
B|--------------------------------------||
G|--------------------------------------||
D|--------------------------------------||
A|-9-9-9------4-5-4-5-5-5--5-7-5-4-5-4~-||
E|------2-4-5---------------------------||

guest
You may want to rate the tab now too:
select rating
Wanna post a correction for this tab? Suggest correction