Oops, an error
Loading. Please wait.

Paralyzed bass

version 3
version 3

Whole song

Interactive

626 views 1 this week
no commentswrite comment
1 2 3 4 5
3 more votes to show rating
add to favorites
×
Save as Personal and add changes to this tab that will be seen only by you. Learn more ›
×
You can save this tab as Personal to edit and correct it or add notes. All changes will be seen only by you. Learn more »
launch autoscroll
font size
0
reset
guitar tuner
edit
Autoscroll
slow
fast
+/-
esc
set tempo
stop
Author
Difficulty
Took me a while but here you go.
I tabbed this from the live videos on YouTube so it wasn't too easy to tab lol.
Tabbed from this video: http://www.youtube.com/watch?v=RZrfHAZ4yNo
But I'm 98% sure I'm right.
Just in case I put something wrong or in a different spot, please tell me!
I wrote this down on paper and I could have possibly put notes on the wrong string...
I just skipped some fast hammer-ons and pull-offs in the bridges because they were too 
to tell and I was lazy :P
Jeph Howard is an amazing bassist
p.s. please rate and comment to tell me what you think!

Enjoy!


Intro:
Guitar plays first.
Bass comes in at :09

                       1st time              2nd time
G------------------|-----------------|------------------------|
D--4-44------------|-----------------|------------------------|
A-------------4-54-|-5-55-5-5-2-4-54-|-5-55-5p4h5-7-5-4h5p4---|
E-------2-4-5------|-----------------|------------------------|

Verse 1
G----------------------------------------------------|
D--4~------------0h2-2-3-3-4~------------------------|
A-----------4h5~---------------------4h5~--5---------|
E------4h5~--------------------4h5~---------0-0-1-1--|

Prechorus
G------------------|-----------------|-----2-4~---2-4~----6-7~-|
D------------------|-----------------|-------------------------|
A-------------4-54-|-5-55-5-5-2-4-54-|-22-------2-------5------|
E--2-22-2-4-5------|-----------------|-------------------------|
(I like playing 2 on E in the prechorus so it doesn't sound like the actual chorus... 
know? Probably not...)

Chorus
                       1st time              2nd time
G------------------|-----------------|-----------------------|
D--4-44------------|-----------------|-----------------------|
A-------------4-54-|-5-55-5-5-2-4-54-|-5-55-5p4h5-7-5-4h5p4--|
E-------2-4-5------|-----------------|-----------------------|

Verse2                                    that's a ten, btw.
G-----22-2--------------------22-2-----7~-----9--10--|
D--4----4-----------------------4--------------------|
A-----------55----------------------55-----77---8----|
E--------------10\\00-0-1-1-2~-----------------------|

Prechorus
G------------------|-----------------|-----2-4~---2-4~----6-7~-6h77778888--|
D------------------|-----------------|-------------------------------------|
A-------------4-54-|-5-55-5-5-2-4-54-|-22-------2-------5------------------|
E--2-22-2-4-5------|-----------------|-------------------------------------|

Chorus  X2!                1st                 2nd
G------------------|-----------------|-----------------------|
D--4-44------------|-----------------|-----------------------|
A-------------4-54-|-5-55-5-5-2-4-54-|-5-55-5p4h5-7-5-4h5p4--|
E-------2-4-5------|-----------------|-----------------------|


Bridge
G-------------------------------------------------------------|
D-----------9---9---9------------/7-6-4------------9---6h7p6--|
A--5~~~~--7---7---7---7-----------------5/7--7-7-7---7--------|
E-----------------------0h2~-2-2------------------------------|

G------------------------------------------------------------------|
D--------/7-6-4-------------9----6h7p6-------------6h7p6-----------|
A---------------5/7--7-7-7-7--7-------5~--5-5-5-5-5------4~-4-4-4--|
E--2~~~------------------------------------------------------------|

           you'll hear when they play these
G------------------------------------------------------------|
D------------------------------------------------------------|
A--77778888-9\\-9\\\--9\\-9\\\--12p11h12-9\\-9\\\--55557788--|
E------------------------------------------------------------|
                            ^twelves/elevens^
Pre-Chorus (I guess?)
G-----------------------------------|
D-----------------------------------|
A--9x9\----5x5\----9x9\----5~~--/\--|
E-----------------------------------|

Chorus  X2!                1st                 2nd
G------------------|-----------------|-----------------------|
D--4-44------------|-----------------|-----------------------|
A-------------4-54-|-5-55-5-5-2-4-54-|-5-55-5p4h5-7-5-4h5p4--|
E-------2-4-5------|-----------------|-----------------------|

Ending Bridge..?
G-------------------------------------------------|
D---9--9--9------------/7-6-4------------9-6h7p6--|
A--7--7--7--7------------------5/7--7-7-7-7-------|
E-------------0h2~-2-2----------------------------|

G---------------------------------------------------------------|
D---------/7-6-4-----------9--6h7p6--------------6h7p6----------|
A----------------5/7--7-7-7-7------5~--5-5-5-5-5------4~-4-4-4--|
E--2~-2-2-------------------------------------------------------|

Outro                                             listen for timing
G-----------------------------------------------------------------------|
D-----------------------------------------------------------------------|
A--77778888-9\\-9\\\--9\\-9\\\--12p11h12-9\\-9\\\--5555778-8-8~---------|
E----------------------------------------------------------------2~~~~--|

You can breathe now ;]

And again, please tell me if I made a mistake somewhere or it doesn't sound right!!

            
            
Suggest correction
Creating personal tab
Creating personal tab
You can edit any tab online and save it as your Personal.

You can edit, replace or remove any tab part or add personal notes – all changes will be seen only by you.

Personal tabs can be accessed anytime from any device, even offline.
Learn more »
Give kudos to tab author, rate the tab!
1 2 3 4 5
comments
print report bad tab
guest
You may want to rate the tab now too:
select rating
Wanna post a correction for this tab? Suggest correction