Oops, an error
Loading. Please wait.

Pieces Mended Tab

4,084 views 3 this week
3 commentsread comments
1 2 3 4 5
x 6
add to favorites
launch autoscroll
font size
0
reset
how to read this tab
guitar tuner
×
Best way to learn
"Pieces Mended"
Autoscroll
slow
fast
+/-
esc
set tempo
stop
Artist:  The Used
Title:  Pieces Mended
Album:  The Used
Tuning:  Drop-D (D A D G B E, low to high)
Tabbed By:  Pat Cahill
E-mail:  DevilsNeverCryXx@hotmail.com

* = harmonics
~ = let note ring
     
     Intro
E||-0-                                |-0~-
B||-4- play for about 5 seconds then  |-5~- let ring for 2 seconds
G||---                                |----
D||---                                |----
A||---                                |----
D||---                                |----

|-------------------    |------------------------     
|-------------------    |------------------------      
|-------------------    |------------------------      
|-4-4-4-4-4-x-x-x-x- x2 |-0-0-0-0-*3-*3-*3-*3-*3- x2
|-4-4-4-4-4-x-x-x-x-    |-0-0-0-0-*3-*3-*3-*3-*3-
|-4-4-4-4-4-x-x-x-x-    |-0-0-0-0-*3-*3-*3-*3-*3-

|-------------------    |------------------------     
|-------------------    |------------------------      
|-------------------    |------------------------      
|-4-4-4-4-4-x-x-x-x- x2 |-0-0-0-0-*3-*3-*3-*3-*3- x2
|-4-4-4-4-4-x-x-x-x-    |-0-0-0-0-*3-*3-*3-*3-*3-
|-4-4-4-4-4-x-x-x-x-    |-0-0-0-0-*3-*3-*3-*3-*3-
     
     
     Verse 1
|-xxxxxx--0--0-0--0-xxxxxx--0--0-0--0-xxxxxx--0--0--0--0-xxxxxx--0--0--0--0-
|-xxxxxx-10-10-9-10-xxxxxx-10-10-9-10-xxxxxx-14-14-14-14-xxxxxx-17-17-17-17-
|-xxxxxx-------9----xxxxxx-------9----xxxxxx-------14----xxxxxx-------16----
|---------------------------------------------------------------------------
|---------------------------------------------------------------------------
|---------------------------------------------------------------------------

|-xxxxxx--0--0-0--0-xxxxxx--0--0-0--0-xxxxxx--0--0--0--0-xxxxxx--0--0--0--0-
|-xxxxxx-10-10-9-10-xxxxxx-10-10-9-10-xxxxxx-14-14-14-14-xxxxxx-14-14-14-14-
|-xxxxxx-------9----xxxxxx-------9----xxxxxx-------14----xxxxxx-------14----
|---------------------------------------------------------------------------
|---------------------------------------------------------------------------
|---------------------------------------------------------------------------

     
     Chorus 1
|-0-0-0--0-0-0-0--0-0-0-0---0--0--0--0--0--0--0--0-
|-7-7-7--7-7-7-7--9-9-9-9--10-10-10-10-10-10-10-10-
|--------------------------------------------------
|-------------------------------------------------- x4
|--------------------------------------------------
|--------------------------------------------------

|-----------------                                   
|-----------------                                    
|-----------------                     --0-              
|-0-0-0-0-0-0-0-0- <- 4th time replace -10-'s with this
|-0-0-0-0-0-0-0-0-                                    
|-0-0-0-0-0-0-0-0-                                  

     
     Verse 2
|-0-------0--------0-------0-------
|-9-(x16)-7-(x16)-10-(x16)-7-(x16)-
|----------------------------------
|----------------------------------
|----------------------------------
|----------------------------------

     
     Bridge 1
|-----------------------------------------------------------
|-10-(x20)-7-(x10)-10-(x20)-7-(x10)-------------------------
|-----------------------------------16-16-16-16-16-16-16-16-
|-----------------------------------xx-xx-xx-xx-xx-xx-xx-xx-
|-----------------------------------14-14-14-14-14-14-14-14-
|-----------------------------------------------------------


     Chorus 2
|-------------------    |------------------------     
|-------------------    |------------------------      
|-------------------    |------------------------      
|-4-4-4-4-4-x-x-x-x- x2 |-0-0-0-0-*3-*3-*3-*3-*3- x2
|-4-4-4-4-4-x-x-x-x-    |-0-0-0-0-*3-*3-*3-*3-*3-
|-4-4-4-4-4-x-x-x-x-    |-0-0-0-0-*3-*3-*3-*3-*3-

|-------------------    |------------------------     
|-------------------    |------------------------      
|-------------------    |------------------------      
|-4-4-4-4-4-x-x-x-x- x2 |-0-0-0-0-*3-*3-*3-*3-*3- x2
|-4-4-4-4-4-x-x-x-x-    |-0-0-0-0-*3-*3-*3-*3-*3-
|-4-4-4-4-4-x-x-x-x-    |-0-0-0-0-*3-*3-*3-*3-*3-

     Bridge 2
|-----------------------------------------------------------
|-----------------------------------------------18-18\17-17-
|-16-------\14------\13------/16-------/18------xx----------
|-xx-(x10)--xx-(x4)--xx-(x6)--xx-(x10)--xx-(x6)-15-15/14-14-
|-14-------\12------\11------/14-------/16------------------
|-----------------------------------------------------------


     Ending
|--0-0-00--0-0-00--0-0-00--0-0-00-
|-1010-99-1010-99-1010-77-1010-77-
|--9-9-99--9-9-99--9-9-99--9-9-99-
|--------------------------------- repeat until Outtro
|---------------------------------
|---------------------------------


     Outtro - piano transcribed for guitar with clean tone
|-----------------------------------------------------------||
|-----------------------------------------------------------||
|-----------------------------------------------------------||
|-4~~----6~-7~-0~~----6~-7~-2~~----7~-6~-7~~----6~-7~-4~~~~-||
|-4~~-4~-------0~~-4~-------2~~-4~-------7~~-4~-------4~~~~-||
|-4~~----------0~~----------2~~----------7~~----------4~~~~-||

     
     Lyrics:

bein' faced with what I'm faced with I feel
like I can't rock
like a rock hit my heart
started to chain the day, exploded into pieces

marry me, stay the same
lie to me and try to say you never will
marry me, stay the same
lie to me and try to tell me

got a feeling in my gut now fills me
so much hope
said fuck it I'm fine
dined and dashed, the pianist peddled into morning

morning

marry me, stay the same
lie to me and try to say you never will
marry me, stay the same
lie to me and try to say you never

morning
morning

bein' faced with what I'm faced with I feel
like I can't rock
like a rock hit my heart
started to chain the day, exploded into pieces
pieces
pieces
pieces
pieces
bein' faced with what I'm faced with I feel
like I can't rock
like a rock hit my heart
started to chain the day, exploded into pieces
Suggest correction
comments
print report bad tab
3 comments total.
0 reply
Dark oblivion 10 Mar 05, 2006 05:50 AM

you got the chours and the intro all wrong.
This is how it's played:

Intro:
e|-----------------------------------------------
B|--7-7--7--7-7-x-x-x-x-x---7-7--7--7-7-x-x-x-x-x
G|--6-6--6--6-6-x-x-x-x-x---6-6--6--6-6-x-x-x-x-x
D|--4-4--4--4-4-x-x-x-x-x---4-4--4--4-4-x-x-x-x-x
A|--4-4--4--4-4-x-x-x-x-x---4-4--4--4-4-x-x-x-x-x
D|--4-4--4--4-4-x-x-x-x-x---4-4--4--4-4-x-x-x-x-x

And then

e|-----------------------------------------------
B|--3-3--3--3-3-x-x-x-x-x---3-3--3--3-3-x-x-x-x-x
G|--2-2--2--2-2-x-x-x-x-x---2-2--2--2-2-x-x-x-x-x
D|--0-0--0--0-0-x-x-x-x-x---0-0--0--0-0-x-x-x-x-x
A|--0-0--0--0-0-x-x-x-x-x---0-0--0--0-0-x-x-x-x-x
D|--0-0--0--0-0-x-x-x-x-x---0-0--0--0-0-x-x-x-x-x


Chours:

e|-------------------------------------------------
B|--10-10-10-10-10-10-10-10-10-10-10-10-10-10-10-10
G|--11-11-11-11-11-11-11-11-11-11-11-11-11-11-11-11
D|---x--x--x--x--x--x--x--x--x--x--x--x--x--x--x--x
A|---9--9--9--9--9--9--9--9-11-11-11-11-11-11-11-11
D|-------------------------------------------------

e|-------------------------------------------------
B|--10-10-10-10-10-10-10-10-10-10-10-10-10-10-10-10
G|--14-14-14-14-14-14-14-14-14-14-14-14-14-14-14-14
D|---x--x--x--x--x--x--x--x--x--x--x--x--x--x--x--x
A|--12-12-12-12-12-12-12-12-12-12-12-12-12-12-12-12
D|-------------------------------------------------

-1 reply
dodee 10 Jan 20, 2008 05:15 PM

^^^^man ur so wrong u suck the tab iz right^^^^

0 reply
Taiwanboy 10 Nov 17, 2010 12:18 AM

This whole thing seems off. Recheck plz? or new tab...?

guest
You may want to rate the tab now too:
select rating
Wanna post a correction for this tab? Suggest correction