Oops, an error
Loading. Please wait.

Pieces Mended Bass Tab

version 2
version 2

Whole song

123 views 1 this week
no commentswrite comment
1 2 3 4 5
please rate
add to favorites
launch autoscroll
font size
0
reset
guitar tuner
Tab Pro tools
  • play this tab
  • loop segment
  • change instrument
  • show fretboard
  • metronome
Autoscroll
slow
fast
+/-
esc
set tempo
stop
Contributor
Pieces Mended - The Used

Tuning - Drop D

Intro
G|--------------------------------------|x2
D|-------4--------4--------0--------0---|x2
A|--------------------------------------|x2
D|-4-4-4----4-4-4----0-0-0----0-0-0-----|x2

Verse 1
G|----------------------------------------|x2
D|-------4--------4--------0--------0-----|x2
A|------------------------------------4-2-|x2
D|-4-4-4----4-4-4----0-0-0----0-0-0-------|x2

Chorus
G|---------------------------------------------|x2
D|---------------------------------------------|x2
A|---------------------------------------------|x2
D|-4-4444-444-6-666-7-777-0-0000-0000-0000-000-|x2

Verse 2
G|----------------------------------------|x2
D|-------4--------4--------0--------0-----|x2
A|------4--------4--------0--------0--4-2-|x2
D|-4-4-4----4-4-4----0-0-0----0-0-0-------|x2

G|--------------------------|
D|--------------------------|
A|-------------555555444444-|
D|-555555555555-------------|

Interlude
G|----------------------------------------------------------------|
D|----------------------------------------------------------------|
A|--(Pause)-----4-4-4-4-4---4-4-4-4-4---0-0-0-0-0---0-0--0-0-0----|
D|----------------------------------------------------------------|

Chorus
G|---------------------------------------------|x2
D|---------------------------------------------|x2
A|---------------------------------------------|x2
D|-4-4444-444-6-666-7-777-0-0000-0000-0000-000-|x2

Post-Chorus (1:45)
G|------------------6-666---4-444-2-222--------------|
D|-4-4444-444-6-666--------------------3-3333-333-4\-|
A|---------------------------------------------------|
D|---------------------------------------------------|

Outro 
G|---------------------|
D|---------------------|
A|---------------------|
D|-4~---0~---7~-----6~-|

G|-----------------------------------------------------|x2|----|
D|-----------------------------------------------------|x2|----|
A|-----------------------------------------------------|x2|----|
D|-444444444444-000000000000-777777777777-666666666666-|x2|-4~-|
comments
We did not receive enough feedback on this tab! Please rate:
print report bad tab
1 2 3 4 5
I want to post or [tab]
guest
You may want to rate the tab now too:
select rating
Please do not post tabs as comments. Select "correction" instead!