Oops, an error
Loading. Please wait.

Poetic Tragedy Bass Tab

version 2
version 2

Whole song

Interactive

168 views 1 this week
no commentswrite comment
1 2 3 4 5
please rate
add to favorites
launch autoscroll
font size
0
reset
guitar tuner
Tab Pro tools
  • play this tab
  • loop segment
  • change instrument
  • show fretboard
  • metronome
Autoscroll
slow
fast
+/-
esc
set tempo
stop
Contributor
Poetic Tragedy - The Used
Tuning - Drop D

1st Verse (0:35)
G|---------------------|------------------------|
D|---------------------|-7----------------------|
A|---12\5---5-7-10---5-|---5-7-10-7-5----(x3)---|
D|---------------------|------------------------|

Chorus
G|------------------------------------------------------------------------|
D|------------------------------------------------------------------------|
A|--55555555-77777777-55555555-77770457-55555555-77777777-55555555-7~-----|
D|------------------------------------------------------------------------|

2nd Verse
G|-------------------|x3|-----------------------|
D|------797----------|x3|-----797---------------|
A|--555-----777-9109-|x3|-555-----777-91012\5---|
D|-------------------|x3|-----------------------|

Chorus x1

Bridge
G|---------------------------------------------------------------|
D|------7------9------7------9/12-----7------9------7------------|
A|---555-5--777-7--555-5--777----7-555-5--777-7--555-5--7~-------|
D|---------------------------------------------------------------|

G|------------------------------------------------|
D|------------7------------7-------------7--------|
A|--5~--7~--5--5-7-10-7-5----5-7-10-7-5----5-7/9\-|
D|------------------------------------------------|

Final Chorus
G|-----------------------------------------------------------|
D|-----------------------------------------------------------|
A|--5~---7~---9~---7~---0475--55555555-77777777-55555555-7~~~|
D|-----------------------------------------------------------|
comments
We did not receive enough feedback on this tab! Please rate:
print report bad tab
1 2 3 4 5
I want to post or [tab]
guest
You may want to rate the tab now too:
select rating
Please do not post tabs as comments. Select "correction" instead!