Oops, an error
Loading. Please wait.

Pretty Handsome Awkward Bass Tab

version 1
version 1

Whole song

Interactive

13,585 views 9 this week
1 commentread comment
1 2 3 4 5
accurate
x 6
add to favorites
launch autoscroll
font size
0
reset
guitar tuner
Tab Pro tools
  • play this tab
  • loop segment
  • change instrument
  • show fretboard
  • metronome
×
Best way to learn
"Pretty Handsome Awkward"
Autoscroll
slow
fast
+/-
esc
set tempo
stop
Difficulty
Tuning
intermediate
D A D G B E

Intro
G|-------------------------------------------------------------------------------||
D|-------------------------------------------------------------------------------||
A|---------------------------5-------------------5-------------------------------||    X1
D|--6p5p3-0-0-0-0-0-0--0h3h5----0-0-0-0-0--0h3h5----0-0-0-0-0--0h3h5-3~3-3-3-5-5-||

Verse 1 
G|-------------------------------------------------------------------------------||
D|-------------------------------------------------------------------------------||
A|---------------------------5-------------------5-------------------------------||    X2
D|--6p5p3-0-0-0-0-0-0--0h3h5----0-0-0-0-0--0h3h5----0-0-0-0-0--0h3h5-3~3-3-3-5-5-||

G|-----------||
D|-----------||
A|-----------||    X1
D|--6p5p3-0--||

Chorus  x2
G|-------------------------------------------------------------------------||
D|-------------------------------------------------------------------------||
A|------------------------------------------8p10~1010----------------------||    X2
D|--0~0~00000--5~5~55555--10~10~10p13~1313/-----------9~9~99999------------||

Pre-Verse 
G|-------------------------------------------------------------------------------||
D|-------------------------------------------------------------------------------||
A|---------------------------5-------------------5-------------------------------||    X1
D|--6p5p3-0-0-0-0-0-0--0h3h5----0-0-0-0-0--0h3h5----0-0-0-0-0--0h3h5-3~3-3-3-5-5-||

Verse 2
G|-----------------------------------------------------------------------||
D|-----------------------------------------------------------------------||
A|--------5\1--------------5\1--------------5\1--------------------------||    X1
D|--0h3h5-----0---0--0h3h5-----0---0--0h3h5-----0---0~-------3~3-3-3-5-5-||

G|-------------------------------------------------------------------------------||
D|-------------------------------------------------------------------------------||
A|---------------------------5-------------------5-------------------------------||    X2
D|--6p5p3-0-0-0-0-0-0--0h3h5----0-0-0-0-0--0h3h5----0-0-0-0-0--0h3h5-3~3-3-3-5-5-||

G|-----------||
D|-----------||
A|-----------||    X1
D|--6p5p3-0--||

Chorus  x2
G|-------------------------------------------------------------------------||
D|-------------------------------------------------------------------------||
A|------------------------------------------8p10~1010----------------------||    X2
D|--0~0~00000--5~5~55555--10~10~10p13~1313/-----------9~9~99999------------||

Bridge
G|--------------------------||
D|--------------------------||
A|--------------------------||    X1
D|--6~--5~--3~---12---------||

G|---------------------------------------------------||
D|---------------------------------------------------||
A|---------------------------------------------------||
D|-0000-0000-0000-0000-0000-0000-0000-0000-0000-0000-||

G|---------------------------------------------------||
D|---------------------------------------------------||
A|---------------------------------------------------||
D|-0000-0000-0000-0000-0000-0000-0000-0000-0000-0000-||

G|----------------------||
D|----------------------||
A|----------------------||
D|-0000-3-3-3-3-5-5-5-5-||

Pre-Chorus
G|-------------------------------------------------------------------------------||
D|-------------------------------------------------------------------------------||
A|---------------------------5-------------------5-------------------------------||    X1
D|--6p5p3-0-0-0-0-0-0--0h3h5----0-0-0-0-0--0h3h5----0-0-0-0-0--0h3h5-3~3-3-3-5-5-||

G|-----------||
D|-----------||
A|-----------||    X1
D|--6p5p3-0--||

Chorus
G|-------------------------------------------------------------------------||
D|-------------------------------------------------------------------------||
A|------------------------------------------8p10~1010----------------------||    X2
D|--0~0~00000--5~5~55555--10~10~10p13~1313/-----------9~9~99999------------||

G|---------------------------------------------------------------||
D|---------------------------------------------------------------||
A|---------------------------------------------------------------||    X2
D|--0~0~00000--5~5~55555--10~10~1010101010--9~9~99999------------||

Outro
G|-------------------------------------------------------------------------------||
D|-------------------------------------------------------------------------------||
A|---------------------------5-------------------5-------------------------------||    X1
D|--6p5p3-0-0-0-0-0-0--0h3h5----0-0-0-0-0--0h3h5----0-0-0-0-0--0h3h5-3~3-3-3-5-5-||

G|----------------------------------------------------------------------------------||
D|----------------------------------------------------------------------------------||
A|--------6---------------------6-------------------6-------------------------------||    X1
D|--0p3p5----0-0-0-0-0-0--0h3h5----0-0-0-0-0--0h3h5----0-0-0-0-0--0h3h5-3~3-3-3-5-5-||

G|----------||
D|----------||
A|----------||
D|-6p5p3-0--||
comments
print report bad tab
1 comment total.
0 reply
SAS bassist wrote on March 27 2008, 07:22 am

lol if there was a 6th star, i would give you that! but sadly, you are just going to have to put up with a lousy 5 for now... =]

I want to post or [tab]
guest
You may want to rate the tab now too:
select rating
Please do not post tabs as comments. Select "correction" instead!